Song name
# A B C D E F G H I J K L M N O P Q R S T U V W X Y Z

Chris Isaak - Baby Did A Bad Bad Thing tab

Tuning: EADGBe

Play softly at first and increase intensity with time. 
You can begin with PM and vary until playing upon the neck.
Progressively play the rest of the notes in the E chord (0221)

Verse 1:
e|----------------------------------------------------------------|
B|----------------------------------------------------------------|
G|----------------------------------------------------------------|
D|----------------------------------------------------------------|
A|-----------------2p0-------0-----2-2--2-2-2---------------------|
E|---0-0--0-0-0----------03b-------0-0--0-0-0------0-3-5-5p3------|

e|----------------------------------------------------------------|
B|----------------------------------------------------------------|
G|--------1-1-1---------------------------------------------------|
D|---2-2--2-2-2-------------------2-2--2-2-2----------------------|
A|---2-2--2-2-2----2p0-------0----2-2--2-2-2----------------------|
E|---0-0--0-0-0----------03b------0-0--0-0-0-----0-3-5-5p3--------|


Bridge 1 :
e|---------------------------------------------------------------|
B|-----------------------------------------------0-0-0-0-0-0-0-0-|
G|-----------------------------------------------1-1-1-1-1-1-1-1-|
D|---------0----------0-LR------0---------0------2-2-2-2-2-2-2-2-|
A|----0h2------0h2----------0h2-----0h2----------2-2-2-2-2-2-2-2-|
E|-----------------------------------------------0-0-0-0-0-0-0-0-|

Verse 2 :

e|----------------------------------------------------------------|
B|----------------------------------------------------------------|
G|--------1-1-1---------------------------------------------------|
D|---2-2--2-2-2-------------------2-2--2-2-2----------------------|
A|---2-2--2-2-2----2p0-------0----2-2--2-2-2----------------------|
E|---0-0--0-0-0----------03b------0-0--0-0-0-----0-3-5-5p3--------|

e|----------------------------------------------------------------|
B|----------------------------------------------------------------|
G|--------1-1-1---------------------------------------------------|
D|---2-2--2-2-2-------------------2-2--2-2-2----------------------|
A|---2-2--2-2-2----2p0-------0----2-2--2-2-2----------------------|
E|---0-0--0-0-0----------03b------0-0--0-0-0-----0-3-5-5p3--------|

Bridge 2 :
e|-------------------------------------------------------------|
B|-------------------------------------------0-0-0-0--0-0-0-0--|
G|-------------------------------------------1-1-1-1--1-1-1-1--|
D|----------0--------0-LR------0--------0----2-2-2-2--2-2-2-2--|
A|---0h2------0h2----------0h2-----0h2-------2-2-2-2--2-2-2-2--|
E|-------------------------------------------0-0-0-0--0-0-0-0--|

e|-----------------------------------------------------------|
B|--2-2-2-2-2-2-2-2----2-2-2-2-2-2-2-2-----------------------|
G|--2-2-2-2-2-2-2-2----2-2-2-2-2-2-2-2---1-1-1-1-1-1-1-1-----|
D|--2-2-2-2-2-2-2-2----2-2-2-2-2-2-2-2---2-2-2-2-2-2-2-2-----|
A|--0-0-0-0-0-0-0-0----0-0-0-0-0-0-0-0---2-2-2-2-2-2-2-2-----|
E|---------------------------------------0-0-0-0-0-0-0-0-----|


e|-------------------------------------------------------------------|
B|-------------------------------------------------------------------|
G|-------------------------------------------------------------------|
D|--------0-2-------0-2-----------0-2-------0-2---0-LR---------------|
A|--0h2------2p0-----------0h2------2p0------------------------------|
E|-------------------------------------------------------------------|
                                                         
e|-------------------------------------------------------------------|
B|-------------------------------------------------------------------|
G|-------------------------------------------------------------------|
D|--------0-2-------0-2-----------0-2-------0-2-LR----2p0------------|
A|--0h2------2p0-------------0h2------2p0----------------------------|
E|--------------------------------------------------------3b--0------|
                                                          PM
Outro :

e|-------------------------------------------------------------------|
B|-------------------------------------------------------------------|
G|-------------------------------------------------------------------|
D|-------------------------------------------------------------------|
A|-------------------2p0-------0-----2-2--2-2-2----------------------|
E|-----0-0--0-0-0----------03b-------0-0--0-0-0------0-3-5-5p3-------|

e|-------------------------------------------------------------------|
B|-------------------------------------------------------------------|
G|--------1-1-1------------------------------------------------------|
D|---2-2--2-2-2-------------------2-2--2-2-2-------------------------|
A|---2-2--2-2-2----2p0-------0----2-2--2-2-2-------------------------|
E|---0-0--0-0-0---------03b-------0-0--0-0-0-----0-3-5-5p3-----------|

************************************

| /   slide up
| \   slide down
| h   hammer-on
| p   pull-off
| ~   vibrato
| +   harmonic
| x   Mute note
| b   Bend
| pb  Pre-bend
| br  Bend release
| pbr Pre-bend release
| brb Bend release bend

***********************************
Tap to rate this tab
 
# A B C D E F G H I J K L M N O P Q R S T U V W X Y Z