Song name
# A B C D E F G H I J K L M N O P Q R S T U V W X Y Z

Chris Isaak - Baby Did A Bad Thing tab

Main Riff:
-----------------------------|
-----------------------------|
-----------------------------|
-----------------------------|
-------------2---------------|
-0--0--0--0-----0--3--5--3--0|
*- This riff is played almost
   throughout the entire song!



Main Riff: (repeat 6x)



Main Riff:
Baby did a bad bad thing (repeat 4x)




E
You ever love someone so much

E
You thought your little heart was gonna break in two?

E       A       E
I don’t think so

E
You ever try With all your heart and soul

E
To get your lover back to you?

E       A      E
I wanna hope so

E
You ever prayed

E
With all your heart and soul

E                           A   E
Just to watch her walk away?



Main Riff:
Baby did a bad bad thing. (repeat 3x)


                ----------------|
                ----------------|
                ----------------|
                --------0h2--0--|
                -0--0h2---------|
                ----------------|
Feel like crying.  (repeat 2x)



E
You ever toss and turn your

E
Lying awake and thinking about the one you love?

E       A       E
I don’t think so

E
Ever close your eyes you’re making believe

E
You’re holding the one you’re dreaming of?

E       A    E
If you say so

E
It hurts so bad

E
When you finally know just how

E                                 A   E
Low, low, low, low, low, she'll go



Main Riff:
Baby did a bad bad thing (repeat 3x)


                ----------------|
                ----------------|
                ----------------|
                --------0h2--0--|
                -0--0h2---------|
                ----------------|
Feel like crying  (repeat 2x)



A            E
Ohhhhh..Feel like crying, feel like crying  (repeat 2x)



-----------|-----------|-------------|-----------|
-----------|-----------|-------------|-----------|
-----------|-----------|-------------|-----------|
------0h2-—|-------2p0-|-------0h2-0-|-------0h2-|
-0-0h2-----|-0-0h2-----|-0-0h2-------|-0-0h2-----|
-----------|-----------|-------------|-----------|

-----------|-------------|---------|
-----------|-------------|---------|
-----------|-------------|---------|
-------2p0-|-------0h2-0-|-2-0-----|
-0-0h2-----|-0-0h2-------|-----0---|
-----------|-------------|-------0-|



Main Riff: (repeat 3x)



E   A   E   A   E
Tap to rate this tab
# A B C D E F G H I J K L M N O P Q R S T U V W X Y Z