Song name
# A B C D E F G H I J K L M N O P Q R S T U V W X Y Z

Chris Isaak - Wicked Game tab

WICKED GAME by Chris Isaak
These are the lead guitar tabs... hope you enjoy!

INTRO:

Part 1:
                   B-      A      E             B-       A            E
E/-----------------------------------------------------------------------/
B/--------------(6/)7---7/0---------------(6/)7--------------------------/
G/----4(b)---------------------4(b)------------5-3-2-0-----2--1----------/
D/------------------------------------------------------------4--2-------/
A/-----------------------------------------------------------------------/
E/-----------------------------------------------------------------------/


Part 2:
    B-                 A                   E
E/---2----0----------0-------------------------------------/
B/-----3----3---2p0---0------------------------------------/
G/------4-----4----------4--2----1-------1--2--4-----------/  x2
D/-4-----------------------4----2------2-------------------/
A/---------------------------------------------------------/
E/---------------------------------------------------------/


Fill 1:              Fill 2:
E/-------------/------------------/
B/-------------/------------------/
G/----2---1---/-----1--2--4-------/
D/--4---2-----/---2---------------/
A/-------------/------------------/
E/-------------/------------------/

Main Chords:   B- / A  /E  /E  (repeat)

Use fill 1 as a transition between verses and fill 2 as a bridge between verse and chorus.

Play part 2 for the two last compas of the chorus (when he sings "with you"). For the 
out thought, play it 4 times.
You can use part 1 as a transition between the verse and the chorus.

Out throught:
                            E
E/-------------------------------0----/
B/----------(6/)7-------------0-------/
G/--4(b)--------------------1---------/
D/------------------------2-----------/
A/----------------------2-------------/
E/--------------------0---------------/


The end, have fun with it!

N.B.:     b: bend
              /: slide
             p: pull off
Tap to rate this tab
 
# A B C D E F G H I J K L M N O P Q R S T U V W X Y Z