Song name
# A B C D E F G H I J K L M N O P Q R S T U V W X Y Z

Chris Isaak - Wicked Game tab

It's best to strum the chords once for the verses. Part 2 will sound right if you 
can ace the timing.


Part 1:
|---------------------------------------|  
|---0-7b-7s0-0--0-7b--5-3-2-0-----------|  
|--------------------------------2---1--|  
|------------------------------4---2----|  
|---------------------------------------|  
|---------------------------------------|  

Part 2:
|-2----0---------------------------------------|
|---3----3---2-0-2-0---------------------------|
|-----4----4---------4-----2---1------1--2s4---|
|------------------------4---2------2----------| Play 2x
|----------------------------------------------|  
|----------------------------------------------|

|------------|            |-----------|         |----------------|
|------------|Fill 1      |-----------| Fill 2  |----------------| Fill 3
|----2---1---|            |----1-2/4--|         |----2---1--2/4--|
|--4---2-----|            |--2--------|         |--4---2---------|
|------------|            |-----------|         |----------------|
|------------|            |-----------|         |----------------|


Verse 1:

Bm                          A                       E   *[Fill 1]
The world was on fire and no one could save me but you
Bm                            A                     E   *[Fill 1]
It's strange what desire will make foolish people do
Bm                      A                       E       *[Fill 1]
I'd never dreamed that I'd meet somebody like you
Bm                      A                       E       *[Fill 2]
I'd never dreamed that I'd lose somebody like you

Chorus: *Play part 2 once for each line

No I don't want to fall in love (this girl is only gonna break your heart)
No I don't want to fall in love (this girl is only gonna break your heart)
With you
With you (this girl is only gonna break your heart)

Verse 2:

Bm            A               E                           *[Fill 3]
What a wicked game you played to make me feel this way
Bm            A               E                           *[Fill 3]
What a wicked thing to do to let me dream of you
Bm            A               E                           *[Fill 3]
What a wicked thing to say you never felt this way
Bm            A               E                           *[Fill 1]
What a wicked thing to do to make me dream of you

Chorus: *Play part 2 once for each line

And I don't want to fall in love (this girl is only gonna break your heart)
No I don't want to fall in love (this girl is only gonna break your heart)
With you

*Part 1:
|---------------------------------------|  
|---0-7b-7s0-0--0-7b--5-3-2-0-----------|  
|--------------------------------2---1--|  
|------------------------------4---2----|  
|---------------------------------------|  
|---------------------------------------|  

*Part 2:
|-2----0---------------------------------------|
|---3----3---2-0-2-0---------------------------|
|-----4----4---------4-----2---1------1--2s4---|
|------------------------4---2------2----------| Play 2x
|----------------------------------------------|  
|----------------------------------------------|

Verse 3:

Bm                          A                       E   *[Fill 1]
The world was on fire and no one could save me but you
Bm                            A                     E   *[Fill 1]
It's strange what desire will make foolish people do
Bm                      A                       E       *[Fill 1]
I'd never dreamed that I'd meet somebody like you
Bm                      A                       E       *[Fill 1]
I'd never dreamed that I'd lose somebody like you

Chorus: *Play part 2 for each line

No I don't want to fall in love (this girl is only gonna break your heart)
No I don't want to fall in love (this girl is only gonna break your heart)
With you (this girl is only gonna break your heart)
With you (this girl is only gonna break your heart)

*Play part 2 twice for this:

No I...(this girl is only gonna break your heart)
(This girl is only gonna break your heart)

|--------|  
|---0-7b-|  
|--------|  <----*Pick this quickly
|--------|  
|--------|  
|--------|
  
     A           E
Nobody loves no one

*End on [Fill 2]
Tap to rate this tab
# A B C D E F G H I J K L M N O P Q R S T U V W X Y Z