Song name
# A B C D E F G H I J K L M N O P Q R S T U V W X Y Z

Chris Knight - North Dakota tab

Tuning:  DROP D -  DADGBE   i USE CAPO ON 6. but im a half step down i think. just 
play with your capo and see where
you need to be. this tab is 99% acurate, I listened to the demo,
 where he sings solo and plays accoustic.YOU'LL HAVE TO LEARN 
THE STRUMING PATTERN ON YOUR OWN. IT AINT HARD. 
 There is alot of emphasis on the B string when your struming up.
and the 1st E string is never touched. mute it if ya have to. THATS IT. 
 THE SONG IS SAME AS INTRO, JUST WITH A FEW LESS HAMMER ON AND PULL OFF

               submited by nathan grissom (catfish)


              INTRO
e|---------------------------------------------------------------------------|
B|--1---1--------1--1--------1-----1--1----------1---1---------1--1----------|
G|--2---2--------0--0--0-----2-----2--0h2 2p0----2---2---------0--0--0-------|
D|--2---2p0  ----2  0h2------0-----0--0----------2---2p0-----  2--0h2--------|
A|--0---0--------3--3--------0-----x--x----------0---0---------3--3----------|
D----------------------------0--2--3--3--------------------------------------|

e|---------3-----------------------------------------------------------------|
B|---------3-----------1-----------------------------------------------------|
G|---------0-----------2-----------------------------------------------------|
D|---------0-----------2-----------------------------------------------------|
A|---------x-----------0-----------------------------------------------------|
D|-3/5 5---5-----5\3 3-------------------------------------------------------|

                          HE DOES THIS WITH THE A minor
 COUPLE TIMES IN THE MIDDLE OF SONG WHEN THERES NO SINGING.
                           

e|---------------------------------------------------------------------------|
B|-------------------------3----3--------------------------------------------|
G|-------------------------2----0--------------------------------------------|
D|-------------------------2----2--------------------------------------------|
A|---------------------00--0----3--------------------------------------------|
D|---------------------------------------------------------------------------|
Tap to rate this tab
 
# A B C D E F G H I J K L M N O P Q R S T U V W X Y Z