Song name
# A B C D E F G H I J K L M N O P Q R S T U V W X Y Z

Chris Ledoux - Seventeen tab

                                  Seventeen                                     
by Chris Ledoux
tabbed by Skielinen@gmail.com

                                                   
Track 1
     E  E  E  E  E  E  E  E     E  E   E  Q    Q    S S    Q    Q    Q    Q     
E||--------------------------|--------------------------|----------------------|
B||--------------------------|--------------------------|----------------------|
G||-----------------------0--|--0--0h--2--2----2----4-2-|--2----2----2----0----|
D||--------------0--2--4-----|--------------------------|----------------------|
A||-----0--2--4--------------|--------------------------|----------------------|
E||--4-----------------------|--------------------------|----------------------|
 
 
  Q    Q    Q    Q       Q    Q    Q    Q       Q    Q    Q    Q     
----------------------|----------------------|----------------------|
----------------------|----------------------|------------0----2----|
--0----0----0---------|----------------------|--2----2--------------|
-----------------4----|--2----0----2----4----|----------------------|
----------------------|----------------------|----------------------|
----------------------|----------------------|----------------------|
 
 
  E  E  E  H        E     Q    Q    Q    Q       Q    Q    Q    Q     
-----------------------|-----------------0----|--2----3----3----3----|
--2--3--2--0--------0--|--0----2----3---------|----------------------|
-----------------------|----------------------|----------------------|
-----------------------|----------------------|----------------------|
-----------------------|----------------------|----------------------|
-----------------------|----------------------|----------------------|
 
 
  E  E   Q    H           E  E  E  E  H           E  E  E  H        E   
--3--5s--5----5--------|--5--7--5--5--5--------|--5--5--5--3--------3--|
-----------------------|-----------------------|-----------------------|
-----------------------|-----------------------|-----------------------|
-----------------------|-----------------------|-----------------------|
-----------------------|-----------------------|-----------------------|
-----------------------|-----------------------|-----------------------|
 
 
  Q    Q    Q    Q       Q    Q    Q    Q        E  E  H        E  E   
--3----2----0---------|--0----2----3----5s----|--5--7--9-----------9--|
-----------------3----|-----------------------|-----------------------|
----------------------|-----------------------|-----------------------|
----------------------|-----------------------|-----------------------|
----------------------|-----------------------|-----------------------|
----------------------|-----------------------|-----------------------|
 
 
                                                    Seventeen              
                                                    ^                      
   Q    Q    H           E  E  E  E  E  E  E  E     H         E  E  E  E   
--10----9----7--------|--7--5--3-----2--3--3-----|--2------------2--------|
----------------------|-----------0--------------|--3---------------3-----|
----------------------|--------------------------|--2---------------------|
----------------------|--------------------------|--0---------0--------0--|
----------------------|--------------------------|------------------------|
----------------------|--------------------------|------------------------|
 
 
  Cowboys dreams                         Aint on fixin fences           
  ^                             ^                                       
  H              E  E  E  E     H        E                    E  E  E   
-----------------------------|--3--------3-----------------------------|
--2-----------------2--------|--3-----------------------------3--------|
--2--------------------2-----|--0--------------------------------0-----|
--2--------------2--------2--|--0-----------------------------------2--|
-----------------------------|--2--------------------------------------|
-----------------------------|--3--------------------------------------|
 
 
                           Chorus                                         
  Q    Q     Q     Q       E      E  E  Q    Q    E     W                 
------------------------|--------------------3----3--|--2----------------|
------------------------|--2------2--2--2----3----3--|--3----------------|
------------------------|--2------2--2--2----0----0--|--4----------------|
-------------------0----|--2------2--2--2----0----0--|--4----------------|
--0----0h----3b---------|--0------0--0--0----2----2--|--0----------------|
------------------------|--------------------3----3--|-------------------|
 
 
                      Chorus                                         
  W                   E      E  E  Q    Q    E     W                 
-------------------|--------------------3----3--|--2----------------|
--2----------------|--2------2--2--2----3----3--|--3----------------|
--2----------------|--2------2--2--2----0----0--|--4----------------|
--2----------------|--2------2--2--2----0----0--|--4----------------|
--0----------------|--0------0--0--0----2----2--|--0----------------|
-------------------|--------------------3----3--|-------------------|
 
 
  W                  
-------------------||
--2----------------||
--2----------------||
--2----------------||
--0----------------||
-------------------||
 
 
 
 
Duration Legend
---------------
W - whole
H - half
Q - quarter
E - 8th
S - 16th
T - 32nd
X - 64th
. - note dotted
|-n-|  - n-tuplets
 
 
Tablature Legend
----------------
L - tied note
x - dead note
g - grace note
(n) - ghost note
> - accentuded note
NH - natural harmonic
AH - artificial harmonic
TH - tapped harmonic
SH - semi harmonic
PH - pitch harmonic
h - hammer on
p - pull off
b - bend
br - bendRelease
pb - preBend
pbr - preBendRelease
brb - bendReleaseBend
\n/ - tremolo bar dip
\n - tremolo bar dive
-/n - tremolo bar Release up
/n\ - tremolo bar inverted dip
/n - tremolo bar return
-\n - tremolo bar Release down
S - shift slide
s - legato slide
/ -  slide into from below or out of upwards
\ -  slide into from above or out of downwards
~ - vibrato
W - wide vibrato
tr - tril'
TP - tremolo picking
T - tapping
S - slap
P - pop
< - fade in
^ - brush up
v - brush down
Tap to rate this tab
 
# A B C D E F G H I J K L M N O P Q R S T U V W X Y Z