Song name
# A B C D E F G H I J K L M N O P Q R S T U V W X Y Z

Chris Levy - What You Feel tab

I thought it was a good idea to tab this amazing song from Smallville Beast 
Episode. It's not the entire song because I haven't figured out the rest of it. 
But You'll have fun with
this.  


Intro                                                                        

e|-------------------|-------------------|-------------------|-------------------|
B|-------9-------9---|-------8--------8--|------8--------8---|-------8-------8---|
G|--10------10-------|-9--------9--------|--8-------8--------|--7-------7--------|
D|-----10------10----|----10-------10----|-----8-------8-----|-----8-------8-----|
A|-------------------|-------------------|-------------------|-------------------|
E|-------------------|-------------------|-------------------|------------------||
(4x)
e|-------------------|-------------------|-------------------|-------------------|
B|-------9-------9---|-------8--------8--|------8--------8---|-------8-------8---|
G|--10------10-------|-9--------9--------|--8-------8--------|--7-------7--------|
D|-----10------10----|----10-------10----|-----8-------8-----|-----8-------8-----|
A|-------------------|-------------------|-------------------|-------------------|
E|-------------------|-------------------|-------------------|------------------||

Verse (2x)

e|--11-11-11-11-11-11-11-11-11--|--11-11-11-11-11-11-11----|-9-9-9-9-9-9-9-9----|
B|--13-13-13-13-13-13-13-13-13--|--10-10-10-10-10-10-10----|-8-8-8-8-8-8-8-8----|
G|------------------------------|--------------------------|--------------------|
D|------------------------------|--------------------------|--------------------|
A|------------------------------|--------------------------|--------------------|
E|------------------------------|--------------------------|--------------------||

e|--11-11-11-11-11-11-11-11-11--|--11-11-11-11-11-11-11----|-9-9-9-9-9-9-9-9----|
B|--13-13-13-13-13-13-13-13-13--|--10-10-10-10-10-10-10----|-8-8-8-8-8-8-8-8----|
G|------------------------------|--------------------------|--------------------|
D|------------------------------|--------------------------|--------------------|
A|------------------------------|--------------------------|--------------------|
E|------------------------------|--------------------------|--------------------|

e|-15--15-------- 15--15----|--9-9-9-9-9-9-9-9--------|--------------------|
B|---16--16----16---16--16--|--8-8-8-8-8-8-8-8--------|--------------------|
G|----------17--------------|-------------------------|--------------------|
D|--------------------------|-------------------------|--------------------|
A|--------------------------|-------------------------|--------------------|
E|--------------------------|-------------------------|--------------------|
(4x)
e|---------------------------------------|
B|-------------------------4-------4-----|
G|------5-------5------------------------|
D|----5---5---5--(2x)----3---3---3---(2x)|
A|-3--------3----------1-------1---------|
E|---------------------------------------|

Verse
|--11-11-11-11-11-11-11-11-11--|--11-11-11-11-11-11-11----|-9-9-9-9-9-9-9-9----|
B|--13-13-13-13-13-13-13-13-13--|--10-10-10-10-10-10-10----|-8-8-8-8-8-8-8-8----|
G|------------------------------|--------------------------|--------------------|
D|------------------------------|--------------------------|--------------------|
A|------------------------------|--------------------------|--------------------|
E|------------------------------|--------------------------|--------------------||

e|--11-11-11-11-11-11-11-11-11--|--11-11-11-11-11-11-11----|-9-9-9-9-9-9-9-9----|
B|--13-13-13-13-13-13-13-13-13--|--10-10-10-10-10-10-10----|-8-8-8-8-8-8-8-8----|
G|------------------------------|--------------------------|--------------------|
D|------------------------------|--------------------------|--------------------|
A|------------------------------|--------------------------|--------------------|
E|------------------------------|--------------------------|--------------------|

e|-15--15-------- 15--15----|--9-9-9-9-9-9-9-9--------|--------------------|
B|---16--16----16---16--16--|--8-8-8-8-8-8-8-8--------|--------------------|
G|----------17--------------|-------------------------|--------------------|
D|--------------------------|-------------------------|--------------------|
A|--------------------------|-------------------------|--------------------|
E|--------------------------|-------------------------|--------------------|

Chorus/Outro

e|--------------------------|--------------------------------------------|
B|--------------------------|--------------------------------------------|
G|--5-----3-----------3-----|-5------7-8-----3--------------------3------|
D|--5(x14)3(x14)6-----3(x14)|-5(x14)-7-8(x8)-3(x8)-6------5-3-----3(x14)-|
A|--3-----1-----6(x14)1-----|-3------5-6-----1-----6(x8)-/5-3(x8)-1------|
E|--------------4-----------|----------------------4------3-1------------|

e|--------------------------------------------|
B|--------------------------------------------|
G|-5------7-8-----3--------------------3------|
D|-5(x14)-7-8(x8)-3(x8)-6------5-3-----3(x14)-|
A|-3------5-6-----1-----6(x8)-/5-3(x8)-1------|
E|----------------------4------3-1------------|


Note: The Song from Smallville's Beast Episode  was taken from a private library 
and the artist doens't have an official website
Tap to rate this tab
# A B C D E F G H I J K L M N O P Q R S T U V W X Y Z