Song name
# A B C D E F G H I J K L M N O P Q R S T U V W X Y Z

Chris Medina - What Are Words tab

CHRIS MEDINA  WHAT ARE WORDS

Disclaimer: The song is purely tabbed by aurals. Certain omission of notes may be 
present. Do contact me for any possible changes to the tablature and credits will be taken 
note of

Email: maverick218@hotmail.com

ENJOY :D

INTRO 0:00 to 0:15

E||----0-----------0---|----0-------0-3--------------|
B||--3---3-1-----1--3--|--3---3-1--------------------|
G||------------2-------|----------0-----2------------|
D||------------------0*|------------------3*---------|
A||--------------------|-----------------------------|
E||--------------------|-----------------------------|


E||---0------------0---|-----------------------------|
B||-3---3-1-----1---3--|--3-1-1----------------------|
G||----------2-2-------|-----------------------------|
D||--------------------|----------3*-5*-2*-----------|
A||--------------------|-----------------------------|
E||--------------------|-----------------------------|

VERSE 1 0:16 to 0:46

E||----0-----------0---|----0------------------------|
B||--3---3-1-----1--3--|--3---3-1-----1-0------------|
G||------------2-------|------------0-----2----------|
D||------------------0*|--------------------2*-------|
A||--------------------|-----------------------------|
E||--------------------|-----------------------------|


E||-----0--------0----|-----0--------------------------|
B||--3----3-1--1--3--|--1-----------------------------|
G||-----------2--------|-------------------------------|
D||--------------------|-------------------------------|
A||--------------------|-------------------------------|
E||--------------------|-------------------------------|

E||----0-----------0---|----0------------------------|
B||--3---3-1-----1--3--|--3---3-1-----1-0------------|
G||------------2-------|------------0-----2----------|
D||------------------0*|--------------------3*-------|
A||--------------------|-----------------------------|
E||--------------------|-----------------------------|

E||-----0--------0----|--------------------------------|
B||--3----3-1--1-3--|----1-1--------------------------|
G||-----------2--------|-------------------------------|
D||--------------------|-------------------------------|
A||--------------------|-------------------------------|
E||--------------------|-------------------------------|







CHORUS 0:46 to 1:17 / CHORUS 2 1:49 to 2:19

E||--8-7-5-5---5--5-5--|-------0---------------------|
B||----------8--8-----|-8-8-------------------------|
G||--------------------|-----5---8-------------------|
D||--------------------|-----------------------------|
A||--------------------|-----------------------------|
E||--------------------|-----------------------------|

E||--8-7-5-5---5--5-5--|------5----------------------|
B||----------8--8-----|-8-8----5--------------------|
G||--------------------|-----------------------------|
D||--------------------|-----------------------------|
A||--------------------|-----------------------------|
E||--------------------|-----------------------------|

E||--8-7-5-5--5--5-7-7-|7-7-8-8----------------------|
B||----------8--8-----|---------8-5-10---5-5-6------|
G||--------------------|-----------------------------|
D||--------------------|-----------------------------|
A||--------------------|-----------------------------|
E||--------------------|-----------------------------|

E||--------------------|-----------------------------|
B||-5-5-5-6------------|-----------------------------|
G||--------7-----------|-----------------------------|
D||--------------------|-----------------------------|
A||--------------------|-----------------------------|
E||--------------------|-----------------------------|

VERSE 2 1:17 to 1:48

E||----0-----------0---|----0------------------------|
B||--3---3-1-----1--3--|--3---3-1-----1-0------------|
G||------------2-------|------------0-----2----------|
D||------------------0*|--------------------2*-------|
A||--------------------|-----------------------------|
E||--------------------|-----------------------------|

E||-----0--------0----|-----0--------------------------|
B||--3----3-1--1---3--|--1----------------------------|
G||-----------2--------|-------------------------------|
D||--------------------|-------------------------------|
A||--------------------|-------------------------------|
E||--------------------|-------------------------------|

E||----0-----------0---|----0---0--------------------|
B||--3---3-1-----1--3--|--3---3----8-10--------------|
G||------------2-------|----------------9-10---------|
D||------------------0*|-----------------------------|
A||--------------------|-----------------------------|
E||--------------------|-----------------------------|

E||-----0--------0----|--------------------------------|
B||--3----3-1--1-3--|----1-1--------------------------|
G||-----------2--------|-------------------------------|
D||--------------------|-------------------------------|
A||--------------------|-------------------------------|
E||--------------------|-------------------------------|

BRIDGE/OUTRO 2:19 to 3:12

E||----0-----------0---|----0------------------------|
B||--3---3-1-----1--3--|--3---3-1-----1-0------------|
G||------------2-------|------------0-----2----------|
D||------------------0*|--------------------2*-------|
A||--------------------|-----------------------------|
E||--------------------|-----------------------------|

E||-----0---------0----|-----0-----------------------|
B||--3----3-1--1---3--|--1--------------------------|
G||-----------2--------|-----------------------------|
D||--------------------|-----------------------------|
A||--------------------|-----------------------------|
E||--------------------|-----------------------------|

E||----0-----------0---|----0------------------------|
B||--3---3-1-----1--3--|--3---3-1-----1-0------------|
G||------------2-------|------------0-----2----------|
D||------------------0*|--------------------3*-------|
A||--------------------|-----------------------------|
E||--------------------|-----------------------------|

E||-----0---------0----|-------------------------------|
B||--3----3-1--1---3--|----1-1-------------------------|
G||-----------2--------|-------------------------------|
D||--------------------|-------------------------------|
A||--------------------|-------------------------------|
E||--------------------|-------------------------------|

E||-----0---------0----|-------------------------------|
B||--3----3-1--1---3--|----1-----1---------------------|
G||-----------2--------|-------------------------------|
D||--------------------|----------2--------------------|
A||--------------------|----------3--------------------|
E||--------------------|----------X--------------------|

* Denotes bass notes which can be omitted. However, do note that there should be a delay 
before the bass notes are played
Tap to rate this tab
 
# A B C D E F G H I J K L M N O P Q R S T U V W X Y Z