Chris Medina - What Are Words tab

What Are Words by: Chris Medina

Tabs by: Moses Gregorio

 My first tab by ear. Probably my last..because I'm so lazy....what time is 
it....12AM!?!? I should go sleep. nah:) Enjoy:)

p.s. I dedicate this to you, my everlasting inspiration to write music=P


Chords and Tabs played separately. Play with the song.

Intro: 
e|-------------------------------------------------------------------------|
B|-------------------------------------------------------------------------|
G|--7-9-7-----------9--7----7-9-7-------9--12/-14----7-9-7-------------9--7|
D|--------10-7--10----------------10-5---------------------10-7--10--------|
A|-------------------------------------------------------------------------|
E|-------------------------------------------------------------------------|
            F         G           C            F                      G
e|-------------------------------------------------------------------------|
B|-------------------------------------------------------------------------|
G|--7--5-4-h5--------------------------------------------------------------|
D|-------------------------------------------------------------------------|
A|-------------------------------------------------------------------------|
E|-------------------------------------------------------------------------|
       C

VERSE1:
e|-------------------------------------------------------------------------|
B|-------------------------------------------------------------------------|
G|--7-9-7--------------9--7-----7-9-7--------------------------------------|
D|----------10--7----10-------------------10-5---10--9----7----------------|
A|-------------------------------------------------------------------------|
E|-------------------------------------------------------------------------|
                 F         G                 C            F
   Anywhere you are, I am near, anywhere you go, I'll be there
e|-------------------------------------------------------------------------|
B|-------------------------------------------------------------------------|
G|-7-9-7---------------9---7---5--7/----9----------------------------------|
D|---------10--7---10------------------------------------------------------|
A|-------------------------------------------------------------------------|
E|-------------------------------------------------------------------------|
                        G             Am  
   Anytime you whisper my name, you'll see
e|-------------------------------------------------------------------------|
B|-------------------------------------------------------------------------|
G|-7---7--9--7---------------9----p7----7-----9----7-----------------------|
D|--------------10--7--h10-----------------------------10--5----10--9-p7---|
A|-------------------------------------------------------------------------|
E|-------------------------------------------------------------------------|
                     F             G                        C          F
   How every single promise I'll keep, 'cause what kind of guy would I be
e|-------------------------------------------------------------------------|
B|-------------------------------------------------------------------------|
G|-----7-9-7-----------------9--7------5--5--------------------------------|
D|-------------10--7---10--------------------------------------------------|
A|-------------------------------------------------------------------------|
E|-------------------------------------------------------------------------|
                                   G       C
      If I was to leave when you need me most

CHORUS:
e|-------------------------------------------------------------------------|
B|----13--12-10-------------------10----10--------10-----------------------|
G|-12----------------------------------------12--------5-5/--9-9/---12-----|
D|-------------------------------------------------------------------------|
A|-------------------------------------------------------------------------|
E|-------------------------------------------------------------------------|
              F                         G                   C
    What are words if you really don't mean them when you say them?
e|-------------------------------------------------------------------------|
B|----13--12-10--------------------10-----10------------10-----------------|
G|-12-----------------------------------------12--12------------9----------|
D|-------------------------------------------------------------------------|
A|-------------------------------------------------------------------------|
E|-------------------------------------------------------------------------|
              F                          G                        Am
    What are words If they're only for good times, then they're torn
e|-------------------------------------------------------------------------|
B|---13-12--10------10---10-10-10-10-10-10-12----12---12-------------------|
G|-9-----------------------------------------------------------------------|
D|-------------------------------------------------------------------------|
A|-------------------------------------------------------------------------|
E|-------------------------------------------------------------------------|
               F                            G
    When it's love, yeah, you say them out loud, those words
e|-------------------------------------------------------------------------|
B|--12--13-13---------10---------------------------------------------------|
G|-------------12--9--------9----9----h10--9-9--9-----h10------------------|
D|----------------------------------------------------------12-------------|
A|-------------------------------------------------------------------------|
E|-------------------------------------------------------------------------| 
           C   G    Am        Em        F                    G  
    They never go away,     They live on, even when we're gone

VERSE2:
e|-------------------------------------------------------------------------|
B|-------------------------------------------------------------------------|
G|--7---9-7-------------9---7-----7---9--7---------------------------------|
D|-------------10-7-10-----------------------10---5-10---9--7--------------|
A|-------------------------------------------------------------------------|
E|-------------------------------------------------------------------------|
                 F           G                    C         F
    And I know an angel was sent just for me, and I know I'm meant 
e|-------------------------------------------------------------------------|
B|-------------------------------------------------------------------------|
G|--7--9--7---------------9---7--5--7/-9-----------------------------------|
D|-------------10-7---10---------------------------------------------------|
A|-------------------------------------------------------------------------|
E|-------------------------------------------------------------------------|
                            G    Am 
    To be where I am, and I'm gonna be
e|-------------------------------------------------------------------------|
B|-------------------------------------------------------------------------|
G|--7--9-----7----------------9--7-h9--7--9--7-h9-9/-12-12/-14-9-h10-------|
D|-----------------10--7--10-----------------------------------------------|
A|-------------------------------------------------------------------------|
E|-------------------------------------------------------------------------|
                      F           G                   C          F
    Standing right beside her tonight, and I'm gonna be by your side
e|-------------------------------------------------------------------------|
B|-------------------------------------------------------------------------|
G|-7--9----7-----------------9---7----5---5--------------------------------|
D|------------10--7-----10-------------------------------------------------|
A|-------------------------------------------------------------------------|
E|-------------------------------------------------------------------------|
                                  G        C
    I would never leave when she needs me most

CHORUS
 
VERSE3:
e|-------------------------------------------------------------------------|
B|-------------------------------------------------------------------------|
G|-7-9--7---------------9--7----7-9-7--------------------------------------|
D|-----------10--7---10-------------------10--5---10---9---7---------------|
A|-------------------------------------------------------------------------|
E|-------------------------------------------------------------------------|
                 F            G                C          F
    Anywhere you are, I am near, anywhere you go, I'll be there
e|-------------------------------------------------------------------------|
B|-------------------------------------------------------------------------|
G|--7----9--7-------------9---7--5--7/-9-----------------------------------|
D|-------------10--7--10---------------------------------------------------|
A|-------------------------------------------------------------------------|
E|-------------------------------------------------------------------------|
                            G      Am  
     And I'm gonna be here forever more
e|-------------------------------------------------------------------------|
B|-------------------------------------------------------------------------|
G|---7-9--7---------------9----7------7----9----7--------------------------|
D|-----------10---7--10-------------------------------10--5--10---9-7------|
A|-------------------------------------------------------------------------|
E|-------------------------------------------------------------------------|
                  F              G                       C           F
     Every single promise I'll keep, 'cause what kind of guy would I be
e|-------------------------------------------------------------------------|
B|-------------------------------------------------------------------------|
G|---7--9-7------------------9---7---5--5----------------------------------|
D|------------10--7-----10-------------------------------------------------|
A|-------------------------------------------------------------------------|
E|-------------------------------------------------------------------------|
                                  G       C
     If I was to leave when you need me most
e|-------------------------------------------------------------------------|
B|-------------------------------------------------------------------------|
G|---7---9-7-------------9--7--5--3/--5------------------------------------|
D|-----------10-7--10------------------------------------------------------|
A|-------------------------------------------------------------------------|
E|-------------------------------------------------------------------------|
                 F                 C
     I'm forever keeping my angel close.
Tap to rate this tab
 
# A B C D E F G H I J K L M N O P Q R S T U V W X Y Z