Song name
# A B C D E F G H I J K L M N O P Q R S T U V W X Y Z

Chris Medina - What Are Words tab

WHAT ARE WORDS
As recorded by Chris Medina

Transcribed by Andreas Nore
	
Piano transcribed for guitar


 Intro
  Q=118
 2/4           4/4
  Gtr II
|----12-------|------------12-----|--------------12-------|
|-15----15-13-|------6-13------15-|-(15)---8--15----15-13-|
|-------------|-14-5--------------|------7----------------|
|-------------|--3----------------|---5-------------------|
|-------------|-------------------|-----------------------|
|-------------|-------------------|-----------------------|
|-------------|-------------------|-----------------------|


|--------12---15------|--------------12---------|
|---------------------|--------6--15----15-13---|
|-12---5---------5-14-|-(14)-5------------------|
|----5------2---------|---3---------------------|
|--3------------------|-------------------------|
|---------------------|-------------------------|
|---------------------|-------------------------|


  Gtr I
|------------12-----|---------------------|-----------------|-0----||
|------6-13------15-|-(15)---8--15--13-13-|-(13)-----6--8---|-1----||
|-14-5--------------|------7--------------|--------5--------|------||
|--3----------------|---5-----------------|------5----------|-2----||
|-------------------|---------------------|---3-------------|-3----||
|-------------------|---------------------|-----------------|------||
|-------------------|---------------------|-----------------|------||


  Verse
   $
   Gtr II
||-----------------|-----------------|--------3--------|------------------|
||-----------------|-----------------|-5---------------|------------------|
||-2-----5--(5)-2--|-4-----7--(7)----|-----5-------0---|-2-----5--(5)-2---|
||-----3-----------|-----5--------5--|---5---(5)-------|-----3------------|
||---3------(3)----|---5------(5)----|-3---------------|---3------(3)-----|
||-1---------------|-3---------------|-----------0-----|-1----------------|
||-----------------|-----------------|-----------------|------------------|


  Gtr I
|------------------|-----------------|----------------|-----------------|
|------------------|-----------------|-1-----1---0----|-----------------|
|-2-----5---2----2-|-4-----7---------|-----2----------|-2--(2)----------|
|-----3--------3---|-----5--------5--|---2------(2)---|----------2------|
|---3------(3)-----|---5------(5)----|-0--------------|-0----------(0)--|
|-1----------------|-3---------------|----------------|-----------------|
|------------------|-----------------|----------------|-----------------|


|-----------------|----------------|--------3--------|-----------------|
|-----------------|----------------|-5---------------|-----------------|
|-2-----5--(5)-2--|-4-----7--(7)---|-----5-------0---|-2-----5--(5)-2--|
|-----3-----------|-----5----------|---5---(5)-------|-----3-----------|
|---3------(3)----|---5------(5)---|-3---------------|---3------(3)----|
|-1---------------|-3--------------|-----------0-----|-1---------------|
|-----------------|----------------|-----------------|-----------------|


  Gtr II
|-----------------|-------------------|----------------|------||
|-----------5---3-|-(3)---------3-----|-(3)------------|-1----||
|-2-----5-------5-|---------5---------|---------0------|-0----||
|-----3-----------|-------5-----------|--5----2----3---|-2----||
|---3------(3)----|-----5------(5)-5--|--3--3----------|-3----||
|-1---------------|--3----------------|----------------|------||
|-----------------|-------------------|--1-------------|-1----||


 Chorus
|---------------|---------------|---------------|---------------|
|-----8--8--(8)-|-----8--8--(8)-|-----8--8--(8)-|-8---8--8--(8)-|
|-5---7--7--(7)-|-7---7--7--(7)-|-5---7--7--(7)-|-7---7--7--(7)-|
|-7-------------|-9-------------|-5-------------|-5-------------|
|-3-------------|-5-------------|---------------|-3-------------|
|-1-------------|-3-------------|-3-------------|---------------|
|---------------|---------------|-1-------------|---------------|


|---------------|---------------|-5----5-------(5)-|-5----5--------(5)-|
|-----8--8--(8)-|-----8--8--(8)-|-5----5-------(5)-|-5----5--------(5)-|
|-5---7--7--(7)-|-7---7--7--(7)-|-5----------------|-5-----------------|
|-7-------------|-9-------------|-----10-----------|-----10---10-------|
|-3-------------|-5-------------|-7---(7)--7-------|-7---(7)---7-7-----|
|-1-------------|-3-------------|-5---(5)----5-----|-5---(5)-----5-----|
|---------------|---------------|------------------|-------------------|


|---------------|---------------|-----------|-------0----|
|-----8--8--(8)-|-----8--8--(8)-|-8---------|-10---------|
|-5---7--7--(7)-|-7---7--7--(7)-|-7----4----|--9----0----|
|-7-------------|-9-------------|-5----5----|--2----2----|
|-3-------------|-5-------------|-3----5----|--0----2----|
|-1-------------|-3-------------|------3----|-------0----|
|---------------|---------------|-----------|------------|


                         D.S. al Fine
|----------|----------|-3--------|-------||
|----------|----------|-3--------|-0-----||
|-5--------|-5--------|-4--------|-0-----||
|-7--------|-7--------|----------|-7-----||
|-3--------|-3--------|-5--------|-5-----||
|-1--------|-1--------|-3--------|-------||
|----------|----------|----------|-------||


 Outro
|-----------------|----------------|--------3--------|-----------------|
|-----------------|----------------|-5---------------|-----------------|
|-2-----5--(5)-2--|-4-----7--(7)---|-----5-------0---|-2-----5--(5)-2--|
|-----3-----------|-----5----------|---5---(5)-------|-----3-----------|
|---3------(3)----|---5------(5)---|-3---------------|---3------(3)----|
|-1---------------|-3--------------|-----------0-----|-1---------------|
|-----------------|----------------|-----------------|-----------------|


|-----------------|-------------------|----------------|-----------------|
|-----------------|-------------------|-1-----1---0----|-----------------|
|-2-----5--(5)-2--|-4-----7------(7)--|-----2----------|-2--(2)----------|
|-----3-----------|-----5-------------|---2------(2)---|----------2------|
|---3------(3)----|---5------(5)------|-0--------------|-0----------(0)--|
|-1---------------|-3-----------------|----------------|-----------------|
|-----------------|-------------------|----------------|-----------------|


|-----------------|----------------|--------3--------|-----------------|
|-----------------|----------------|-5---------------|-----------------|
|-2-----5--(5)-2--|-4-----7--(7)---|-----5-------0---|-2-----5--(5)-2--|
|-----3-----------|-----5----------|---5---(5)-------|-----3-----------|
|---3------(3)----|---5------(5)---|-3---------------|---3------(3)----|
|-1---------------|-3--------------|-----------0-----|-1---------------|
|-----------------|----------------|-----------------|-----------------|


|-----------------|-------------------|----------------|------|
|-----------5---3-|-(3)---------3-----|-(3)------------|------|
|-2-----5-------5-|---------5---------|---------0------|------|
|-----3-----------|-------5-----------|--5----2----3---|-2----|
|---3------(3)----|-----5------(5)-5--|--3--3----------|-3----|
|-1---------------|--3----------------|----------------|------|
|-----------------|-------------------|--1-------------|------|


                                            Fine
             3x
||-----------||----------|------------|---------*|
||-----------||-1--------|-(1)--------|-(1)-----*|
||o---------o||-0--------|-(0)--------|-(0)-----*|
||-----------||-2--------|-(2)--------|-(2)-----*|
||o---------o||-3--------|-(3)--------|-(3)-----*|
||-----------||----------|------------|---------*|
||-----------||-1--------|-(1)--------|-(1)-----*|



** Generated using Power Tab Editor by Brad Larsen: The Official Power Tab Web Site
Tap to rate this tab
 
# A B C D E F G H I J K L M N O P Q R S T U V W X Y Z