Song name
# A B C D E F G H I J K L M N O P Q R S T U V W X Y Z

Chris Perez Project - Todo Es Diferente tab

Song: Todo es Diferente
Artist: Chris Perez Project
Website:  www.chrisperezmusic.com/bio
Tuning: Standard
Tabbed by: Alex Rivera
d.c.guitar@homtail.com

Super cool song by one of the coolest dudes in the spanish music world!
Pretty excited about upcoming the CD!



Intro: 2x
You can finger pick the notes or palm mute them with while using a pick, however, finger 
picking sounds better.
e|------------------------------------------|
B|---6-6-6--5-5-5--6-6-6--5-5-5--6-6--5-5---|
G|---5-5-5--5-5-5--5-5-5--5-5-5--5-5--5-5---|
D|------------------------------------------|
A|------------------------------------------|
E|------------------------------------------|

Verse: 8x (same riff as intro)
Chords (D A B, D A B, D A B, F A#)
e|------------------------------------------|
B|---6-6-6--5-5-5--6-6-6--5-5-5--6-6--5-5---|
G|---5-5-5--5-5-5--5-5-5--5-5-5--5-5--5-5---|  8x
D|------------------------------------------|
A|------------------------------------------|
E|------------------------------------------|

Chorus 1:
Chords (F C D A A#)
       (F C D A A# G A# D)
e|-----------------------|
B|-----------------------|
G|-----------------------|  2x
D|-------5---7---2---3---|
A|---3---3---5---0---1---|
E|---1-------------------|

e|---x-x--x-x--x------|
B|---x-x--x-x--x------|
G|---x-x--x-x--x------|
D|---x-x--x-x--x-5\---|   This goes in between the first and second repetitions of the chorus.
A|---x-x--x-x--x-3\---|
E|---x-x--x-x--x------|

e|----------------|
B|----------------|
G|----------------|
D|-------3--------|
A|---5---1---/5---|
E|---3------------|

Right at the D note, the intro riff starts once!

Verse:
Chords (D A B, D A B, D A B, F A#)
e|------------------------------------------|
B|---6-6-6--5-5-5--6-6-6--5-5-5--6-6--5-5---|
G|---5-5-5--5-5-5--5-5-5--5-5-5--5-5--5-5---|  8x
D|------------------------------------------|
A|------------------------------------------|
E|------------------------------------------|

Chorus 2:
Chords (F C D A A#)
       (F C D A A# A#m)
e|-----------------------|
B|-----------------------|
G|-----------------------|  2x
D|-------5---7---2---3---|
A|---3---3---5---0---1---|
E|---1-------------------|

e|---x-x--x-x--x------|
B|---x-x--x-x--x------|
G|---x-x--x-x--x------|
D|---x-x--x-x--x-5\---|   This goes in between the first and second repetitions of the chorus.
A|---x-x--x-x--x-3\---|
E|---x-x--x-x--x------|

e|---1---|
B|---2---|
G|---3---|
D|---3---|
A|---1---|
E|-------|

Bridge:
Chords (F A A# A#m)
e|---------------1-------|
B|---------------2-------|
G|---------------3-------|  2x
D|-------2---3---3-------|
A|---3---0---1---1-------|
E|---1-------------------|

e|---1---|
B|---2---|
G|---3---|
D|---3---|
A|---1---|
E|-------|

Solo: (Same as Bridge riff) 2x
Chords (F A A# A#m)
e|---------------1-------|
B|---------------2-------|
G|---------------3-------|  2x
D|-------2---3---3-------|
A|---3---0---1---1-------|
E|---1-------------------|


e|----------13---------------------------------------------------------------13----15b17-13-15b17|
B|---12b14-----13----------------------------13-------13b15~~~-15b17-14--/15----15---------------|
G|-----------------12b14r10h12------10-12/14----12-14--------------------------------------------|
D|------------------------------/12--------------------------------------------------------------|
A|-----------------------------------------------------------------------------------------------|
E|-----------------------------------------------------------------------------------------------|

e|---15b18-14b16--13-12-------------13----13-13----13-------------------------------------13~~~--|
B|----------------------13----15~~~----15-------14----14--------------------------------13-------|
G|-------------------------14--------------------------------------12----12-14-15-14-15----------|
D|--------------------------------------------------------12-14-15----15-------------------------|
A|-----------------------------------------------------------------------------------------------|
E|-----------------------------------------------------------------------------------------------|


Chorus 3:
Chords (F C D A A#)
e|-----------------------|
B|-----------------------|
G|-----------------------|  4x
D|-------5---7---2---3---|
A|---3---3---5---0---1---|
E|---1-------------------|

Intro Riff fade out.

The End
Tap to rate this tab
 
# A B C D E F G H I J K L M N O P Q R S T U V W X Y Z