Song name
# A B C D E F G H I J K L M N O P Q R S T U V W X Y Z

Chris Pierce - Are You Beautiful tab

Are You Beautiful, Chris Pierce
All guitar parts are here
Finger Pick
Capo 2nd Fret

~Intro/Main Riff

|---------------------------------|
|-6--5--3-3--1--------6--5--3--1--|
|-5--5--3-3--2--------5--5--3--2--|
|-0------------1/3--0-------------|
|----3--1-1-------------3---1-----|
|------------1-----------------1--|

~1st part of chorus
~And I wonder to myself, and I wonder to myself:
(If anyone has a better way to play the first part of the chorus* let me know)
*
|-------|
|-6---6-|
|-5---5-|
|-0---0-|
|-x---x-|
|-6---5-|

~2nd part of chorus
~Are You Beautiful...

|------------------------------------------------------|
|---1----1-----------------1----1----------------------|
|--2-----2-------6----6---2-----2-----6----6-----------|
|-3-----2-------7----6---3-----2-----7----6------------|
|------0------/8----8---------0----/8----8-------------|
|------------------------------------------------------|

~Bridge~
~the strum pattern is not here, but this is the chord progression. 

|-------------------------------------------------|
|---------------------2---------------2-----------|
|-7---------------3---3---7-------3---3-----------|
|-7---7---7-------3---3---7---5---3---3-----------|
|-5---4---3---5---1---1---5---5---1---1-----------|
|-------------3---------------3-------------------|


ayou lika tha way iya playa?
Tap to rate this tab
# A B C D E F G H I J K L M N O P Q R S T U V W X Y Z