Song name
# A B C D E F G H I J K L M N O P Q R S T U V W X Y Z

Chris Pontius - Swamp Boogie tab

*This is my first real tab that isn't a chord tab, so bare with me if there are some 
errors. Most importantly, enjoy!*

Song by Chris Pontius
Tabbed by Cody Gudmundsen (SmartWentCody)

Legend:
< is pick scrape
X is muted notes

Tuning: Standard
e
B
G
D
A
E

Intro:
|---------------|---------------|---------------|-------------------|\- |
|---------------|---------------|---------------|-------------------|-- |
|---------------|---------------|---------------|-------------------|-- |
|---------------|---------------|---------------|-------------------|-- |
|-8-8-8-8-8-8-8-|-8-8-8-8-8-8-8-|-4-4-4-4-4-4-4-|-3-3~~-3-3-3-3-3-<-|-- |
|-6-6-9-6-6-6-9-|-6-6-9-6-6-6-9-|-2-0-2-0-2-0-0-|-0-1~~-1-1-1-1-1-<-|-- |
                                                                       > (x2)
|---------------|---------------|---------------|-------------------|-- |
|---------------|---------------|---------------|-------------------|-- |
|---------------|---------------|---------------|-------------------|-- |
|---------------|---------------|---------------|-------------------|-- |
|-8-8-8-8-8-8-8-|-8-8-8-8-8-8-8-|-4-4-4-4-4-4-4-|-6~~-6-6-6-6-6-6-6-|-- |
|-6-6-9-6-6-6-9-|-6-6-9-6-6-6-9-|-2-0-2-0-2-0-0-|-4~~-4-4-4-4-4-4-4---- |

Verse:
|---------------|---------------|---------------|-------------------|\- |
|---------------|---------------|---------------|-------------------|-- |
|---------------|---------------|---------------|-------------------|-- |
|---------------|---------------|---------------|-------------------|-- |
|-8-8-8-8-8-8-8-|-8-8-8-8-8-8-8-|-4-4-4-4-4-4-4-|-3-3~~-3-3-3-3-3-3-|-- |
|-6-6-9-6-6-6-9-|-6-6-9-6-6-6-9-|-2-0-2-0-2-0-0-|-0-1~~-1-1-1-1-1-1-|-- |
                                                                       > (x2)
|---------------|---------------|---------------|-------------------|-- |
|---------------|---------------|---------------|-------------------|-- |
|---------------|---------------|---------------|-------------------|-- |
|---------------|---------------|---------------|-------------------|-- |
|-8-8-8-8-8-8-8-|-8-8-8-8-8-8-8-|-4-4-4-4-4-4-4-|-6~~-6-6-6-6-6-6-6-|-- |
|-6-6-9-6-6-6-9-|-6-6-9-6-6-6-9-|-2-0-2-0-2-0-0-|-4~~-4-4-4-4-4-4-4---- |

Chorus:
|-----------------|--------------------|-----------------|-----------------|\- |
|-----------------|--------------------|-----------------|-------------------- |
|-----------------|--------------------|-----------------|-------------------- |
|-6~~-6-8-6-6-6-8-|-8~~-8-10-8-8-8-10--|-5~~-5-7-5-5-5-7-|-6~~-6-8-6-6-6-8---- |
|-4~~-4-4-4-4-4-4-|-6~~-6-6--6-6-6-6---|-3~~-3-3-3-3-3-3-|-4~~-4-4-4-4-4-4-|-- | (x3)
|-----------------|--------------------|-----------------|-------------------- |

Then play this:
|-----------------|--------------------|-----------------|
|-----------------|--------------------|-----------------|
|-----------------|--------------------|-----------------|
|-6~~-6-8-6-6-6-8-|-8~~-8-10-8-8-8-10--|-5~~-5-7-5-5-5-7-|
|-4~~-4-4-4-4-4-4-|-6~~-6-6--6-6-6-6---|-3~~-3-3-3-3-3-3-|
|-----------------|--------------------|-----------------|

|-----------------|-----------------|\- |
|-----------------|-------------------- |
|-----------------|-------------------- |
|-6-X-X-----------|-8-X-X-------------- |
|-4-X-X-6~~-6-6~~-|-6-X-X-8~~-8-8~~-|-- | (x3)
|-------4~~-4-4~~-|-------6~~-6-6~~---- |

Then play this:
|--------------|-----------------------|
|--------------|-----------------------|
|--------------|-----------------------|
|-6~~--6-6-6-6-|-6-6-6-6-6-6-6-6-6-6-6-|
|-4~~--4-4-4-4-|-4-4-4-4-4-4-4-4-4-4-4-|
|--------------|-----------------------|

|-----------------|-----------------|\- |
|-----------------|-------------------- |
|-----------------|-------------------- |
|-6-X-X-----------|-8-X-X-------------- |
|-4-X-X-6~~-6-6~~-|-6-X-X-8~~-8-8~~-|-- | (x3)
|-------4~~-4-4~~-|-------6~~-6-6~~---- |

Then play this:
|--------------|-----------------------|
|--------------|-----------------------|
|--------------|-----------------------|
|-6~~--4-4-4-4-|-6-6-6-6-6-6-6-6-6-6-6-|
|-4~~--6-6-6-6-|-4-4-4-4-4-4-4-4-4-4-4-|
|--------------|-----------------------|

Repeat from verse.

Guitar solo:
|---------------------|---------------------------|---------------------|
|-9b12~~-12r9-9-6~~---|-9b12~~-12r9-9-6b8-(8)r6~~-|-11/9----9-11/9------|
|---------------------|---------------6b8-(8)r6~~-|------10--------10~~-|
|---------------------|---------------------------|---------------------|
|---------------------|---------------------------|---------------------|
|---------------------|---------------------------|---------------------|

|-----------------|-----------6----9----9-5/9~~-|
|-----------------|-------6-9---9b12-9b12-5/9~~-|
|-8/6-8-6-8/6-8~~-|---6-8-----------------------|
|-----8-------8~~-|-8---------------------------|
|-----------------|-8---------------------------|
|-----------------|-----------------------------|

*Chorus*

*Verse*

End strong on:
|-----|
|-----|
|-----|
|-8~~-|
|-8~~-|
|-6~~-|

And hold it!
Tap to rate this tab
# A B C D E F G H I J K L M N O P Q R S T U V W X Y Z