Song name
# A B C D E F G H I J K L M N O P Q R S T U V W X Y Z

Chris Pontius - Karazy tab

Help us improve GuitareTab! Take a short survey!
This also includes Lead Guitar and the SOLO!!!!!!!!!!!!!!!!! Since nobody else tabbed these parts +)


Rhythm Intro
E|----------------------------------------------------|
B|----------------------------------------------------|
G|----------------------------------------------------|
D|-7-7-7-5-5-5-5-5-5-5-5-7-7-7-10-10-10 10 10 10 10 10|
A|-7-7-7-5-5-5-5-5-5-5-5-7-7-7-10-10-10-10-10-10-10-10| 
e|-5-5-5-3-3-3-3-3-3-3-3-5-5-5-8--8--8--8--8--8--8--8-|

Lead Intro
E|---------------------------------------------------------|
B|---12b-12b-12b-12b-13b-13b-17-15-14----------------------|
G|---------------------------------------------------------| X 2
D|---------------------------------------------------------|
A|---------------------------------------------------------| 
e|---------------------------------------------------------|

Bridge
E|----------------------------------------------------|
B|----------------------------------------------------|
G|----------------------------------------------------|
D|----------------------------------------------------|
A|----------------------------------------------------| 
e|-5-5-5-3-3-3-3-3-3-3-3-5-5-5-8--8--8--8--8--8--8--8-|
   . . . . . . . . . . . . . . .  .  .  .  .  .  .  .  Palm mute

Solo ( Use Lots of Distortion)
E|---------------------------------------------------------|
B|---12b-12b-12b-12b-13b-13b-17^15^14----------------------|
G|---------------------------------------------------------| X 2
D|---------------------------------------------------------|
A|---------------------------------------------------------| 
e|---------------------------------------------------------|

outro
E|----------------------------------------------------|
B|----------------------------------------------------|
G|----------------------------------------------------|
D|-7-7-7-5-5-5-5-5-5-5-5-7-7-7-10-10-10 10 10 10 10 10|
A|-7-7-7-5-5-5-5-5-5-5-5-7-7-7-10-10-10-10-10-10-10-10| 
e|-5-5-5-3-3-3-3-3-3-3-3-5-5-5-8--8--8--8--8--8--8--8-|
Related for Karazy tab