Song name
# A B C D E F G H I J K L M N O P Q R S T U V W X Y Z

Chris Pontius - Sand Vagina tab

Someone already tapped it but i did it in Drop D
like chris plays it in the series
For the ritme of the song you can watch the song on youtube.
ENJOY THIS TAB


E--------------------------------------------------------|
B--------------------------------------------------------|
G--------------------------------------------------------|
D-2-22-2-2-2--2-22-2-2-2--5-55-5-5-5--10-1010-10-10-10---|
A-2-22-2-2-2--2-22-2-2-2--5-55-5-5-5--10-1010-10-10-10---|
D-2-22-2-2-2--2-22-2-2-2--5-55-5-5-5--10-1010-10-10-10---| X3

At the End Play

E---------------------------------------------------------|
B---------------------------------------------------------|
G---------------------------------------------------------|
D-2-22-2-2-2--2-22-2-2-2--5-55-5-5-5--10-1010-10-10-10--2-|
A-2-22-2-2-2--2-22-2-2-2--5-55-5-5-5--10-1010-10-10-10--2-|
D-2-22-2-2-2--2-22-2-2-2--5-55-5-5-5--10-1010-10-10-10--2-|
Tap to rate this tab
# A B C D E F G H I J K L M N O P Q R S T U V W X Y Z