Song name
# A B C D E F G H I J K L M N O P Q R S T U V W X Y Z

Chris Rea - On The Beach tab

99% Accurate

|--8s11----11--11--8----8-11-8---------|
|--------------------8---------6~~~~---|
|--------------------------------------|
|--------------------------------------|
|--------------------------------------|

|--8s11----11--11--8----8-11-8-13~~~~--|
|--------------------8-----------------|
|--------------------------------------|
|--------------------------------------|
|--------------------------------------|
Tap to rate this tab
 
# A B C D E F G H I J K L M N O P Q R S T U V W X Y Z