Song name
# A B C D E F G H I J K L M N O P Q R S T U V W X Y Z

Chris Rice - Come To Jesus tab

e|-0-1-3----------1-1-3-3-5-5-5-1--|
B|--------1-0-1-3-----------------3|
G|---------------------------------|
D|---------------------------------|
A|---------------------------------|
E|---------------------------------|

e|--7-6-7--3-----7-6-7--3-1-3---7-6-7--3-1-3--7-7|
B|-----------------------------------------------|
G|-----------------------------------------------|
D|-----------------------------------------------|
A|-----------------------------------------------|
E|-----------------------------------------------|

e|-0-0-1-1-3-----------------1-1-3-3-5-5-5-1----|
B|-------------1-0-0-1-1-3---------------------3|
G|----------------------------------------------|
D|----------------------------------------------|
A|----------------------------------------------|
E|----------------------------------------------|

e|--7-6-7--3-----7-6-7--3-1-3---7-6-7--3-1-3--7-7|
B|-----------------------------------------------|
G|-----------------------------------------------|
D|-----------------------------------------------|
A|-----------------------------------------------|
E|-----------------------------------------------|
This is just the basic melody of it.  Just keep playing this over and over
with each verse.  Enjoy!

PLEASE RATE!
Tap to rate this tab
 
# A B C D E F G H I J K L M N O P Q R S T U V W X Y Z