Song name
# A B C D E F G H I J K L M N O P Q R S T U V W X Y Z

Chris Rice - Amusing tab

Song: Amusing
Artist: Chris Rice
Standard tuning
Put capo on the 5th fret. All tab is relative to capo

This is a mess, but I don't know how to divide it other than the absence of the guitar. 

Part 1: the first two times skip this note()
|----2-------2---|----2-------2---|----6---5-------|----6---5-------|
|0-------0-------|0-------0-------|------------8---|------------8---|
|--2---2---2---2-|--2---2---2---2-|6-----6---6---6-|--6---6---6--(6)|
|----------------|----------------|--5-------------|----------------| x4
|----------------|----------------|----------------|7---------------|
|----------------|----------------|----------------|----------------|

|----------------|----------------|----------------|----------------|
|------2-------2-|------2-------2-|------2-0-------|2-----2-0-------|
|----0-------0---|----0-------0---|----0-----0---0-|--0-------0---0-|
|--0-------0-----|--0-------0-----|--0---------0---|----0-------0---|
|1-------1-------|1-------1-------|2---------------|----------------|
|----------------|----------------|----------------|----------------|

|----------------|----------------|----------------|----------------|
|------2-------2-|------2-------2-|------3-------3-|------2-------2-|
|----0-------0---|----0-------0---|----0-------0---|----0-------0---|
|--0-------0-----|--0-------0-----|--0-------0-----|--0-------0-----|
|1-------1-------|1-------1-------|2-------2-------|1-------1-------|
|----------------|----------------|----------------|----------------|

|----------------|------0---------|------0---------|------0---------|
|------3-------3-|2---------2---2-|3---------2---2-|3---------2---2-|
|----0-------0---|--0---------0---|--0---------0---|--0---------0---|
|--2-------2-----|----2-----------|----2-----------|----2-----------|
|0-------0-------|0---0---0-------|0---0---0-------|0---0---0-------|
|----------------|----------------|----------------|----------------|

|------0---------|------0---------|------0---------|----------------|
|3---------2---2-|3---------2---2-|3-------2-------|2---------------|
|--0---------0---|--0---------0---|--0-------0---0-|----------------|
|----2-----------|----2-----------|----2-------2---|----------------|
|0---0---0-------|0---0---0-------|0---0-------0---|0---------------|
|----------------|----------------|----------------|----------------|

|----2-------2---|----2-------2---|----1---0-------|1---1---0-------|
|0-------0-------|0-------0-------|0-----0---0-----|--0---0---0-----|
|--2---2---2---2-|--2---2---2---2-|--1-----------1-|----------------|
|----------------|----------------|------------0---|----------------|
|----------------|----------------|----------------|----------------|
|----------------|----------------|----------------|----------------|

|----------------|----------------|--------------------------------|
|------3-------2-|------3-2-------|--------------------------------|
|----0-------0---|----0-----0-----|--------------------------------|
|--0-------0-----|--2---------2---|--------------------------------|
|1-------1-------|0---------------|--------------------------------|
|----------------|----------------|--------------------------------|
 pause for strings


Part 2:
|----2-------2---|----2-------2---|----6---5-------|----6---5-------|
|0-------0-------|0-------0-------|------------8---|------------8---|
|--2---2---2---2-|--2---2---2---2-|6-----6---6---6-|--6---6---6---6-|
|----------------|----------------|--5-------------|----------------| x2
|----------------|----------------|----------------|7---------------|
|----------------|----------------|----------------|----------------|

|----------------|----------------|----------------|----------------|
|------2-------2-|------2-------2-|2---2---0---3---|2---2---0-------|
|----0-------0---|----0-------0---|----------------|------------0---|
|--0-------0-----|--0-------0-----|--0---0---0---0-|--0---0---0---0-|
|1-------1-------|1-------1-------|----------------|----------------|
|----------------|----------------|----------------|----------------|

|----------------|----------------|----------------|----------------|
|------2-------2-|------2-------2-|------3-------3-|------2-------2-|
|----0-------0---|----0-------0---|----0-------0---|----0-------0---|
|--0-------0-----|--0-------0-----|--0-------0-----|--0-------0-----|
|1-------1-------|1-------1-------|2-------2-------|1-------1-------|
|----------------|----------------|----------------|----------------|

|--------------0-|----------------|------0---------|------0---------|
|------3-----3---|2-----2-------2-|3---------2---2-|3---------2---2-|
|----0-----------|--0-----0---0---|--0---------0---|--0---------0---|
|--2-------2-----|----2-----2-----|----2---2-------|----2---2-------|
|0-------0-------|0---------------|0---------------|0---------------|
|----------------|----------------|----------------|----------------|

|------0---------|------0---------|------0---------|----------------|
|3---------2---2-|3---------2---2-|3---------2---2-|2---------------|
|--0---------0---|--0---------0---|--0---------0---|----------------|
|----2---2-------|----2---2-------|----2---2-------|----------------|
|0---------------|0---------------|0---------------|0---------------|
|----------------|----------------|----------------|----------------|

another pause for more strings 

Play intro again, then continue with part 3


Part 3:
|----2-------2---|----2-------2---|----6---5-------|----6---5-------|
|0-------0-------|0-------0-------|------------8---|------------8---|
|--2---2---2---2-|--2---2---2---2-|6-----6---6---6-|--6---6---6---6-|
|----------------|----------------|--5-------------|----------------| x2
|----------------|----------------|----------------|7---------------|
|----------------|----------------|----------------|----------------|

|----------------|----------------|----------------|----------------|
|------2-------2-|------2-------2-|------2-0-------|2-----2-0-------|
|----0-------0---|----0-------0---|----0-----0---0-|--0-------0---0-|
|--0-------0-----|--0-------0-----|--0---------0---|----0-------0---|
|1-------1-------|1-------1-------|2---------------|----------------|
|----------------|----------------|----------------|----------------|

|----------------|----------------|----------------|----------------|
|------2-------2-|------2-------2-|------3-------3-|------2-------2-|
|----0-------0---|----0-------0---|----0-------0---|----0-------0---|
|--0-------0-----|--0-------0-----|--0-------0-----|--0-------0-----|
|1-------1-------|1-------1-------|2-------2-------|1-------1-------|
|----------------|----------------|----------------|----------------|

|----------------|------0---------|------0---------|------0-------0-|
|------3-------3-|2---------2---2-|3---------2---2-|3-----------2---|
|----0-------0---|--0---------0---|--0---------0---|--0-------0-----|
|--2-------2-----|----2-----------|----2-----------|----2-----------|
|0-------0-------|0---0---0-------|0---0---0-------|0---0---0-------|
|----------------|----------------|----------------|----------------|

|------0-2-------|------0-------0-|------0-------0-|----------------|
|3---------3-----|3-----------2---|3---------3-----|2---------------|
|--0---------4-0-|--0-------0-----|--0---------0---|----------------|
|----2-----------|----2-----------|----2-----------|----------------|
|0---0---0-------|0---0---0-------|0---0---0-------|0---------------|
|----------------|----------------|----------------|----------------|

Pause. Strings.

|----2-------2---|----2-------2---|----------------|10--------------|
|0-------0-------|0-------0-------|----------------|7---------------|
|--2---2---2---2-|--2---2---2-----|----------------|7---------------|
|----------------|----------------|----------------|7---------------| End
|----------------|----------------|----------------|9---------------|
|----------------|----------------|----------------|----------------|
Enjoy.
Tap to rate this tab
 
# A B C D E F G H I J K L M N O P Q R S T U V W X Y Z