Song name
# A B C D E F G H I J K L M N O P Q R S T U V W X Y Z

Chris Rice - Deep Enough To Dream tab

capo on 3rd

Intro & Verses
  4/4                                                              2/4
||--0h2-------0----------|-----------0--------|-----3-------------|------||
||--------3-------3---2--|-3-------3---3--2---|-0-------0---3-----|------||
||------2----------------|-----2------------2-|-0-0-------0----2--|-(2)--||
||--0--------------------|---0----------------|-------------------|------||
||----------------0------|-2------------------|-------------------|------||
||-----------------------|-------------2------|-3-----------2-----|------||

 4/4
|-0h2-------0-----------|-----------0---------|-----3------------|
|-------3-----3-3---2---|-3-------3---3---2---|-0-------0---3----|
|-----2---------------0-|-----2---------2---2-|-0-0-------0----2-|
|-0---------------2-----|---0-----------------|------------------|
|---------------0-------|-2-------------------|------------------|
|-----------------------|-------------2-------|-3-----------2----|

 Pre-Chorus
|---------3--------|---------0------|---------0-----------0---|------|
|-0---3-------3----|-3---------3-2--|-3---3-------3---3-------|-3----|
|---0-------0------|-----0----------|---2-------2---2-------2-|------|
|------------------|---2------------|-------------------------|------|
|------------------|-0-----------0--|-2-----------2-----------|-2----|
|-0----------------|----------------|-------------------------|------|

  Chorus
||--3-------3---0h2-------0---|
||------3-----3-------3-----3-|
||----2-------------2---------|
||--------------0-------------|
||--0-------------------------|
||----------------------------|


|---------5-------------5----||----------5------------|
|-3---3-------3-----3-------o||--3---3-------3---3----|
|---0-------0-----0-------0--||----0-------0---0------|
|---------------0------------||-----------------------|
|---------------------------o||-----------------------|
|-3--------------------------||--3--------------------|

|-----------0--------|---3-0---0-----------0---|------|
|---------3---3---2--|-0---------0-----------3-|-2----|
|---0h2---------0----|-----------------0-------|------|
|--------------------|---------------2---------|------|
|-------------0------|-------------0-----------|-0----|
|-0------------------|-0-----------------------|------|

 Bridge
|---------0-----------0---|---------0-----------0---|
|-----3-----------3-------|-----3-----------3-------|
|---2-------2---2-------2-|---2-------2---2-------2-|
|-------------------------|-------------------------|
|-2-----------2-----------|-------------------------|
|-------------------------|-2-----------2-----------|

|---------0-----------0---|---------------------0-|
|-------------------------|-----3---3-----2-2h3---|
|---0h2-----0---0h2-----0-|---0-------0-----------|
|-------------------------|-----------------------|
|-------------------------|-0-----------0---------|
|-3-----------3-----------|-----------------------|

|---------0-----------0---|---------0-----------0---|
|-----3-----------3-------|-----3-----------3-------|
|---2-------2---2-------2-|---2-------2---2-------2-|
|-------------------------|-------------------------|
|-2-----------2-----------|-------------------------|
|-------------------------|-2-----------2-----------|

|---------0-----------0---|---------5------------|
|-----------------3-------|-----3-------3---3----|
|---0h2-----2---2-------2-|---0-------0---0---0--|
|-------------------------|----------------------|
|-------------------------|----------------------|
|-0-----------2-----------|-3--------------------|

 Out-Chorus             2/4           4/4                3x
|-----------0--------||------------0-|-------------------||
|---------3---3---2--||o-0-------3---|-3-------3---0h2---||
|---0h2---------0----||----0h2-------|---0h2-----2-------||
|--------------------||--------------|-------------------||
|-------------0------||o-------------|-0-----------0-----||
|--------------------||--0-----------|-------------------||

   Outro
||----------0-----------0----||
||--3---3-------3---3--------||
||----2-------2---2-------2--||
||---------------------------||
||--2-----------2------------||
||---------------------------||

and, you can have a second guitar quietly stum these chords, or just use cords if you 
still with capo on 3rd:

D             Asus A
Lazy summer afternoon
D/B                    Asus       A
Screened-in porch and nothin' to do
  G                  D/F#
I just kicked off my tennis shoes
D              Asus    A
Slouchin' in a plastic chair
D/B               Asus       A
Rakin' my fingers through my hair
  G                   D/F#
I close my eyes and I leave 'em there
      Em7                 Asus   A      D/B
And I yawn, and sigh, and slowly fade away

               A
Deep enough to dream
             D             G
In brilliant colors I have never seen
               A
Deep enough to join
          D            G
A billion people for a wedding feast
               A
Deep enough to reach out and touch
    D                   G
the face of the One who made me
                   Em7               Asus A
And oh, the love I feel, and oh, the peace
     Em7          Asus A
Do I ever have to wake up

D               Asus   A
Awakened by a familiar sound
D/B             Asus     A
A clumsy fly is buzzin' around
   G                       D/F#
He bumps the screen and he tumbles down
   D                 Asus     A
He gathers about his wits and pride
    D/B                 Asus      A
And tries again for the hundredth time
       G                      D/F#
'Cause freedom calls from the other side
      Em7                Asus   A     D/B
And I smile and nod, and slowly drift away

(Repeat Chorus)
       D
'Cause peace is pouring over my soul

See the lambs and the lions playin'
G
I join in and I drink the music
A
Holiness is the air I'm breathin'
D/B                          D
My faithful heroes break the bread

and answer all of my questions
G                       D/F#
Not to mention what the streets are made of
G                               Asus
My heart's held hostage by this love
                    D             G
And these brilliant colors I have never seen
  A              D            G
I join a billion people for a wedding feast
  A
I reach out and touch
    D                   G
the face of the One who made me
               A
Deep enough to dream
             D             G
In brilliant colors I have never seen
               A
Deep enough to join
          D            G
A billion people for a wedding feast
               A
Deep enough to reach out and touch
    D                   G
the face of the One who made me
                   Em7               Asus A
And oh, the love I feel, and oh, the peace
     Em7          Asus A
Do I ever have to wake up
     Em7          Asus A
Do I ever have to wake up
     Em7            Asus A  Em7
Do I really have to wake up now
Tap to rate this tab
# A B C D E F G H I J K L M N O P Q R S T U V W X Y Z