Song name
# A B C D E F G H I J K L M N O P Q R S T U V W X Y Z

Chris Rice - Lemonade tab

#----------------------------------PLEASE NOTE---------------------------------#
#This file is the author's own work and represents their interpretation of the #
#song. You may only use this file for private study, scholarship, or research. #
#------------------------------------------------------------------------------#


----------------------------------------------------------------------------
              Lemonade by Chris Rice . . . tabbed by Bob M.
----------------------------------------------------------------------------


Transcribed all by ear. As always. Open to suggestions and Please Rate!!

Tuning: Guitar 1 - EADGBE
        Guitar 2 - EADGBE

Chords:

Bbsus2 - x13311
F      - xx3211 or 133211
C      - 332010 or x35553
Dm     - xx0231 or x57765
A      - x02220 or 577655
Bbm    - x13321 or 688666



  "So go ahead and ask her..." - 00:01


    Bbsus2                              F

E|------1-------1-------1-------1----|------1-------1-------1-------1------|
B|----1---1---1---1---1---1---1---1--|----1---1---1---1---1---1---1---1----|
G|--3-------3-------3-------3--------|--2-------2-------2-------2----------|
D|-----------------------------------|-------------------------------------|
A|-----------------------------------|-------------------------------------|
E|-----------------------------------|-------------------------------------|


    C                                   Bbsus2

E|------0-------0-------0-------0----|------1-------1----1-----------------|
B|----1---1---1---1---1---1---1---1--|----1---1---1---1--1-----------------|
G|--0-------0-------0-------0--------|--3-------3--------3-----------------|
D|-----------------------------------|-------------------------------------|
A|-----------------------------------|-------------------------------------|
E|-----------------------------------|-------------------------------------|



  "Come on pour the glass and tempt me..." - 00:18

   Guitar 1:

   Bbsus2                               F

E|------1-------1-------1-------1----|------1-------1-------1-------1------|
B|----1---1---1---1---1---1---1---1--|----1---1---1---1---1---1---1---1----|
G|--3-------3-------3-------3--------|--2-------2-------2-------2----------|
D|-----------------------------------|-------------------------------------|
A|-----------------------------------|-------------------------------------|
E|-----------------------------------|-------------------------------------|
 | Guitar 2:                                                               |
E|-----------------------------------|-------------------------------------|
B|-----------------------------------|-------------------------------------|
G|--15------14------12------10-------|--14------12------10------12---------|
D|---x-(x4)--x-(x4)--x-(x4)--x-(x4)--|---x-(x4)--x-(x4)--x-(x4)--x-(x4)----|
A|--13------12------10-------8-------|--12------10-------8------10---------|
E|-----------------------------------|-------------------------------------|


    Guitar 1: - 00:29

    C       Dm      C        Bbsus2

E|------0-------1-------3------3-----|
B|----1---1---1---1---1---1------1---|
G|--0-------2-------3--------3-------|
D|-----------------------------------|
A|-----------------------------------|
E|-----------------------------------|
 | Guitar 2                          |
E|-----------------------------------|
B|-----------------------------------|
G|--12------14------15------17-------|
D|---x-(x4)--x-(x4)--x-(x4)--x-(x4)--|
A|--10------12------13------15-------|
E|-----------------------------------|


  Chorus - "Life gave me lemonade and I can't imagine why..." - 00:34

    F       C        Dm       Bbsus2

E|--------1----------------1--6-5-3----||
B|------1---------1------3----------6--||
G|----2---------0------2---------------||
D|--3---------2------0-----------------||
A|----------3--------------------------||
E|-------------------------------------||


  "I live life without pretending..." - 00:43

    A       Dm       C       F

E|--------5-------5--------8----------8--|
B|------5-------6--------8---------10----|
G|----6-------7--------9--------10-------|
D|--7-------7-------10-------10----------|
A|---------------------------------------|
E|---------------------------------------|


  "Thanks for the lemonade..." - 00:48

    Bbm       F                     Bbm      F

E|-------------------------------|-----------1---|
B|--------6----------------------|--------6--1---|
G|------6---------2---3-2-0------|------6----2---|
D|----8---------3---3-------3----|----8------3---|
A|-------------------------------|-----------3---|
E|--6---------1------------------|--6--------1---|


  Verse 2 - "Now take your time to answer me" - 00:56

    Bbsus2                              F

E|------1-------1-------1-------1----|------1-------1-------1-------1------|
B|----1---1---1---1---1---1---1---1--|----1---1---1---1---1---1---1---1----|
G|--3-------3-------3-------3--------|--2-------2-------2-------2----------|
D|-----------------------------------|-------------------------------------|
A|-----------------------------------|-------------------------------------|
E|-----------------------------------|-------------------------------------|
 | Guitar 2                                                                |
E|----1--1----1--1----1--1-----------|----1--1----1--1----1--1-------------|
B|----1--1----1--1----1--1-----------|----1--1----1--1----1--1-------------|
G|--3-------3-------3----3-----------|--2-------2-------2----2-------------|
D|-----------------------------------|-------------------------------------|
A|--1-------1-------1----1-----------|-------------------------------------|
E|-----------------------------------|--1-------1-------1----1-------------|

    C                                   Bbsus2

E|------0-------0-------0-------0----|------1-------1----1-----------------|
B|----1---1---1---1---1---1---1---1--|----1---1---1---1--1-----------------|
G|--0-------0-------0-------0--------|--3-------3--------3-----------------|
D|-----------------------------------|-------------------------------------|
A|-----------------------------------|-------------------------------------|
E|-----------------------------------|-------------------------------------|
 | Guitar 2                                                                |
E|----0--0----0--0----0--0-----------|--1----------------------------------|
B|----1--1----1--1----1--1-----------|--1----------------------------------|
G|--0-------0-------0----0-----------|--3----------------------------------|
D|-----------------------------------|--3----------------------------------|
A|--3-------3-------3----3-----------|--1----------------------------------|
E|-----------------------------------|-------------------------------------|


  "I can hardly breathe while waiting..." - 01:14

    Bbsus2                               F

E|------1-------1-------1-------1----|------1-------1-------1-------1------|
B|----1---1---1---1---1---1---1---1--|----1---1---1---1---1---1---1---1----|
G|--3-------3-------3-------3--------|--2-------2-------2-------2----------|
D|-----------------------------------|-------------------------------------|
A|-----------------------------------|-------------------------------------|
E|-----------------------------------|-------------------------------------|
 | Guitar 2:                                                               |
E|------------------------------------|------------------------------------|
B|------------------------------------|------------------------------------|
G|--15-----14-----12-----10-12-14-10--|--14------12------10------12--------|
D|---x-(x4)-x-(x4)-x-(x4)-x--x--x--x--|---x-(x4)--x-(x4)--x-(x4)--x-(x4)---|
A|--13-----12-----10------8-10-12--8--|--12------10-------8------10--------|
E|------------------------------------|------------------------------------|


    C       Dm      C        Bbsus2

E|------0-------1-------3------3-----|
B|----1---1---1---1---1---1------1---|
G|--0-------2-------3--------3-------|
D|-----------------------------------|
A|-----------------------------------|
E|-----------------------------------|
 | Guitar 2:                         |
E|-----------------------------------|
B|-----------------------------------|
G|--12------14------15------17-------|
D|---x-(x4)--x-(x4)--x-(x4)--x-(x4)--|
A|--10------12------13------15-------|
E|-----------------------------------|


  Chorus - "Life gave me lemonade and I can't imagine why..." - 01:30

    F       C        Dm       Bbsus2

E|--------1----------------1--6-5-3----||
B|------1---------1------3----------6--||
G|----2---------0------2---------------||
D|--3---------2------0-----------------||
A|----------3--------------------------||
E|-------------------------------------||


  "I live life without pretending..." - 01:39

    A       Dm       C       F

E|--------5-------5--------8----------8--|
B|------5-------6--------8---------10----|
G|----6-------7--------9--------10-------|
D|--7-------7-------10-------10----------|
A|---------------------------------------|
E|---------------------------------------|


  "Thanks for the lemonade..." - 01:44

    Bbm       F                     Bbm

E|-------------------------------|--------------|
B|--------6----------------------|--------6-----|
G|------6---------2---3-2-0------|------6-------|
D|----8---------3---3-------3----|----8---------|
A|-------------------------------|--------------|
E|--6---------1------------------|--6-----------|


   Bridge - "I've got it made..." - 01:51 (WITH EMOTION!!!)

    F            C            Dm          G

E|--1--1--1--1---3--3--3--3---5--5--5--5--3--3--3--3--|
B|--1--1--1--1---5--5--5--5---6--6--6--6--3--3--3--3--|
G|--2--2--2--2---5--5--5--5---7--7--7--7--4--4--4--4--|
D|--3--3--3--3---5--5--5--5---7--7--7--7--5--5--5--5--|
A|--3--3--3--3---3--3--3--3---5--5--5--5--5--5--5--5--|
E|--1--1--1--1---x--x--x--x---x--x--x--x--3--3--3--3--|
 | Guitar 2                                           |
E|----------------------------------------------------|
B|----------------------------------------------------|
G|-----------10--9---14-12---10---9-10---12-----------|
D|--3-/-7--7--x--x-7--x--x----x-7-x--x----x-----------|
A|--x---x--x--8--7-x-12-10----8-x-7--8---10-----------|
E|--1-/-5--5-------5------------5---------------------|


    C            A              Dm           Bbsus2

E|--3--3--3--3---5--5--5--5--|--5--5--5--5---1--1--1--1--|
B|--5--5--5--5---5--5--5--5--|--6--6--6--6---1--1--1--1--|
G|--5--5--5--5---6--6--6--6--|--7--7--7--7---3--3--3--3--|
D|--5--5--5--5---7--7--7--7--|--7--7--7--7---3--3--3--3--|
A|--3--3--3--3---7--7--7--7--|--5--5--5--5---1--1--1--1--|
E|--x--x--x--x---5--5--5--5--|--x--x--x--x---x--x--x--x--|
 | Guitar 2                                              |
E|---------------------------|---------------------------|
B|---------------------------|------6-5----------6-5-----|
G|--12-----------14----------|----7----7-5----3-----7-5--|
D|---x-(x8)-------x-(x8)-----|---7-7---------3-3---------|
A|--10-----------12----------|--5-----------1------------|
E|---------------------------|---------------------------|


    F            C

E|--1--1--1--1---3----|
B|--1--1--1--1---5----|
G|--2--2--2--2---5----|
D|--3--3--3--3---5----|
A|--3--3--3--3---3----|
E|--1--1--1--1--------|
 | Guitar 2           |
E|--------------------|
B|-------6-5----------|
G|----------7-5-------|
D|----3---------------|
A|---3-3--------------|
E|--1-----------------|


  Chorus - "Life gave me lemonade and I can't imagine why..." - 02:15

    F       C        Dm       Bbsus2

E|--------1----------------1--------1--||
B|------1---------1------3--------1----||
G|----2---------0------2--------3------||
D|--3---------2------0--------3--------||
A|----------3--------------------------||
E|-------------------------------------||


    F       C        Dm       Bbsus2

E|--------1----------------1--6-5-3----||
B|------1---------1------3----------6--||
G|----2---------0------2---------------||
D|--3---------2------0-----------------||
A|----------3--------------------------||
E|-------------------------------------||


  "I live life without pretending..." - 02:34

    A       Dm       C       F

E|--------5-------5--------8----------8--|
B|------5-------6--------8---------10----|
G|----6-------7--------9--------10-------|
D|--7-------7-------10-------10----------|
A|---------------------------------------|
E|---------------------------------------|


  "Thanks for the lemonade..." - 02:39

    Bbm       F                            Bbm      F

E|--------------------------------------|--------------------------------------|
B|--------6-----------------------------|--------6-----------------------------|
G|------6---------2---3-2-0-------------|------6--------2---3-2-0--------------|
D|----8---------3---3-------3-----------|----8--------3---3-------3------------|
A|--------------------------------------|--------------------------------------|
E|--6---------1-------------------------|--6--------1--------------------------|
 | Guitar 2:                                                                   |
E|--------------------------------------|--------------------------------------|
B|------------10b(11)r10----------------|-----------10b(11)r10-----------------|
G|----------------------10-----------10-|---------------------10------------10-|
D|------------------------10-8-7-8-10---|-----------------------10-8-7-8-10----|
A|--------------------------------------|--------------------------------------|
E|--------------------------------------|--------------------------------------|

    Bbm       F                            Bbm      F

E|--------------------------------------|-----------1--------------------------|
B|--------6-----------------------------|--------6--1--------------------------|
G|------6---------2---3-2-0-------------|------6----2--------------------------|
D|----8---------3---3-------3-----------|----8------3--------------------------|
A|--------------------------------------|-----------3--------------------------|
E|--6---------1-------------------------|--6--------1--------------------------|
 | Guitar 2:                                                                   |
E|--------------------------------------|--------------------------------------|
B|--------------------------------------|--------------------------------------|
G|--------------------------------------|--------------------------------------|
D|--------------------------------------|--------------------------------------|
A|--------------------------------------|--------------------------------------|
E|--------------------------------------|--------------------------------------|


       E----------------------------------------------------------------||
       B--------------------------------x-------------------------------||
       G----------------- x Love always to my Cari, x ------------------||
       D---------------------------- x Ines x --------------------------||
       A----------------------------------------------------------------||
       E----------------------------------------------------------------||


Tablature Legend (in order of appearance):
----------------

x    - muted string
(x4) - play four times
||   - repeat bar twice
/    - slide up the fretboard
b    - bend
b()r - release i.e. 2b(3)r2 bend that 2nd fretted note up a semi-tone and release to the 
original note

----------------

My email is ultimate-guitartabber@hotmail.com if you have any questions or
comments but constructive criticism only please.

29.12.2010
Tap to rate this tab
 
# A B C D E F G H I J K L M N O P Q R S T U V W X Y Z