Song name
# A B C D E F G H I J K L M N O P Q R S T U V W X Y Z

Chris Rice - Smellin Coffee tab

Highlighted       Show chord diagrams
-------------------------------------------------------------------------------
			     Smellin' Coffee - Chris Rice
-------------------------------------------------------------------------------
Tabbed by: Drummergirl930
Email: drummagirl930@yahoo.com

First tab ever...Kinda noticed that this song had no tabs ANYWHERE on the internet 
attempted. Hopefully someone else can use this basic try to actually figure it out...

     F      Bb       Bb/F
e|---1-------1---------1----------------------------------------------------------|
B|---1-------3---------3----------------------------------------------------------|
G|---2-------3---------3----------------------------------------------------------|
D|---3-------3---------1----------------------------------------------------------|
A|---3-------1---------1----------------------------------------------------------|
E|---1----------------------------------------------------------------------------|

Intro:
F F Bb,    F Bb Bb,
1 &  2 & 3 & 4  &

Verse 1: strumming pattern?
F                             Bb
Last thing I remember, saying bye to yesterday,
F                            Bb
Glad to see it over, pulling covers over my head,
F                           Bb/F
What were you doing while I dreamt the night away?

            Bb (hold)                              Bb/F (hold)     Bb (hold)
Cause I can tell that somethings different and my eyes aint even open yet,

Chorus:
F                    Bb
Im smellin coffee, birds are singin just outside,
F                      Bb/F
Here comes your mercy, Streaming in with the morning light,
F                   Bb
My heart is racin, waking up to your smile,
        F         Bb/F
Its a, Good Morning,
F        Bb
Good Morning


Verse 2:

I remember reading youre the God who never sleeps,
While Ive been dreaming, youve been singing over me,
Singing about my freedom, Waking me up to hear your song,
And now I cant dance hard enough cause yesterday is gone gone gone,

Chorus

F                                    Bb
Every little breath, Heartbeat, Is a gift of love that you give to me,
F                                           Bb
You keep giving, even when Im asleep, Cause I know you never stop watching over me,
F                                    Bb
Wake up, my past is gone, Cause your mercy's new with the morning sun,
F                                                         Bb
Im forgiven I'm free its a brand new day, Cause your faithfulness is the greatest, HEY!

Chorus (x2)
Tap to rate this tab
# A B C D E F G H I J K L M N O P Q R S T U V W X Y Z