Song name
# A B C D E F G H I J K L M N O P Q R S T U V W X Y Z

Chris Robinson - Someday Past The Sunset tab

Artist: Chris Robinson
Song: Someday Past The Sunset
Album: Never Released

Tuning: EADGBE (Standard)

Verse:
E-------------------|
B--1-1-1-1-1-1-1-1--|
G--2-2-2-2-2-2-2-2--|
D--2-2-2-2-2-2-2-2--|
A--0-0-3-3-0-0-0-0--|
E--------------3-3--|

E 		    G
I feel weary in the weight of these days

Chorus:
E--0--2--|
B--3--3--|
G--2--2--| x4
D--0--0--|
A--------|
E--------|

Am (verse riff)

E--0--2--|
B--3--3--|
G--2--2--| x4
D--0--0--|
A--------|
E--------|

E

"Behind the door, eyes of stone":
E-----------|
B--0-1-0-1--|
G--0-2-0-2--|
D--0-2-0-2--|
A----0---0--|
E-----------|
Tap to rate this tab
# A B C D E F G H I J K L M N O P Q R S T U V W X Y Z