Song name
# A B C D E F G H I J K L M N O P Q R S T U V W X Y Z

Chris Robinson - Star Crossed Lonely Sailor tab

Artist: Chris Robinson (Chris Robinson's Wooden Family/Chris Robinson Brotherhood)
Song: Star Crossed Lonely Sailor
Album: Unreleased

Tuning: EADGBE (Standard) with capo at 4th fret (Wooden Family) or 2nd fret 
(Brotherhood).  All notes in this tab are relative to the capo.

E--0----0-0--0----0--0----0-0--0--2--3-2--|
B--5/7--7-7--5----1--5/7--7-7--5--3--3-3--|
G--0----0-0--0----0--0----0-0--0--2--2-2--|
D-----------------2---------------0-------|
A---------------3-------------------------|
E-----------------------------------------|

E--0----0-0--0----0-0----------------2--|
B--5/7--7-7--5----1-1----------------3--|
G--0----0-0--0----0-0-------------0--2--|
D-----------------2-2-0-2-0-----0----0--|
A---------------3-----------0h2---------|
E---------------------------------------|

E--0----0-0--0----0--0----0-0--0--0h2-2-2h3p2----|
B--5/7--7-7--5----1--5/7--7-7--5--3---3-3-----3--|
G--0----0-0--0----0--0----0-0--0--2---2-------2--|
D---------------2-----------------0--------------|
A---------------3--------------------------------|
E------------------------------------------------|

E--0----0-0--0----0-----------2--|
B--5/7--7-7--5----1--------3--3--|
G--0----0-0--0-------------0--2--|
D------------------------0----0--|
A---------------3----0h2---------|
E--------------------------------|

E--0----0-0--0--|
B--5/7--7-7--5--|
G--0----0-0--0--|
D---------------|
A---------------|
E---------------|

C
Star crossed lonely sailor
	 D
You been out to sea too long
C
Thereís no love to save you
	  D
When your weather has gone wrong
       Csus2		G/B
So you set a course for nothingness
     G/Bb		      Dsus2 D
From back from where you came
      Csus2	    G/B
Where sirens sing a song of love
   G/Bb		      D
To remind you of your pain

E--0----0-0--0--|
B--5/7--7-7--5--|
G--0----0-0--0--|
D---------------|
A---------------|
E---------------|

C
Silent lighthouse keeper
	  D
With your fire burning bright
C			     D
Ever constant vigil for lost mariners in the night
       Csus2	   G/B
In the solitude of misty moods
	 G/Bb		   Dsus2 D
You talk only to the waves
    Csus2		  G/B		     G/Bb		       D
Who lend an ear while you disappear into the dark from which you came


D	    D7     C	  G
We all have storms on our horizon
D		    D7
And we all feel the sun
C	       G
When it begins rising
D		  D7
And we all follow love
C		G
Even when it misguides us
C		     Em		      D
But we canít see the light from here
      C		    Em		     D
No we canít see the light from here


E--0----0-0--0--0--0-0----0-0--0--2--2--|
B--5/7--7-7--5--1--1-5/7--7-7--5--3--3--|
G--0----0-0--0--0--0-0----0-0--0--2--2--|
D---------------2-----------------0-----|
A---------------3-----------------------|
E---------------------------------------|

E--0----0-0--0------0-0--------3--2--|
B--5/7--7-7--5------1-1--------3--3--|
G--0----0-0--0------0-0--------0--2--|
D----------------------------0----0--|
A---------------0h3------0h2---------|
E------------------------------------|


C
Tearful grey eyed captain
	    D
Come on and blow your lonely horn
C
His albatross above him
	  D
While his crew sleeps safe and warm
Csus2		   G/B
Set adrift through murky black
	  G/Bb		       Dsus2 D
Where the moon is out to play
      Csus2	 G/B		   G/B	                 D
Where only those pure of heart can find their way today


D	    D7     C	  G
We all have storms on our horizon
D		    D7
And we all feel the sun
C	       G
When it begins rising
D		  D7
And we all follow love
C		G
Even when it misguides us
C		     Em		      D
But we canít see the light from here
      C		    Em		     D
No we canít see the light from here

E--0----0-0--0--|
B--5/7--7-7--5--|
G--0----0-0--0--|
D---------------|
A---------------|
E---------------|

E--0---0-0-----0---0-0--0-0-------0---0-0--0-2--3--3-2--|
B--0h1-1-1-x-x-0h1-1-1--1-0h1-x-x-0h1-1-1--1-3--3--3-3--|
G--0---0-0-x-x-0---0-0--0-0---x-x-0---0-0--0-2--2--2-2--| x3
D--0h2-2-2-x-x-0h2-2-2--2-0h2-x-x-0h2-2-2--2-0--0--0-0--|
A-------------------------------------------------------|
E-------------------------------------------------------|

E--0---0-0--0-0---0-0--0-0-----0-0---0--0-2--3--3-2--|
B--0h1-1-1--1-0h1-1-1--1-1-x-x-1-1-x-1--1-3--3--3-3--|
G--0---0-0--0-0---0-0--0-0-x-x-0-0-x-0--0-2--2--2-2--|
D--0h2-2-2--2-0h2-2-2--2-2-x-x-2-2-x-2--2-0--0--0-0--|
A----------------------------------------------------|
E----------------------------------------------------|

D	    D7     C	  G
We all have storms on our horizon
D		    D7
And we all feel the sun
C	       G
When it begins rising
D		  D7
And we all follow love
C		G
Even when it misguides us
C		     Em		      D
But we canít see the light from here
      C		    Em		     D
No we canít see the light from here
      C		    Em		     D
No we canít see the light from here
      C
No we canít see the light
Em
Can't see the light
	   D
From here
Tap to rate this tab
 
# A B C D E F G H I J K L M N O P Q R S T U V W X Y Z