Song name
# A B C D E F G H I J K L M N O P Q R S T U V W X Y Z

Chris Ross - Fallin Apart tab

A very "radio" sounding song on Chris Ross' sophomore album "Halfway to Wonderland".  
Fallin' Apart is a fun song to play.  Standard tuning without a capo.  Check out the 
Youtube guitar lesson that Chris made for the song!  Good luck!

Intro/Verse Riff
e-----------------------------------------------------------|
B-----------------------------------------------------------|
G-------------------------------9-7-6-7-6-7-6-9-7-6-7-6-7-6-|
D-11-9-7-9-7-9-7-11-9-7-9-7-9-7-0-0-0-0-0-0-0-0-0-0-0-0-0-0-|
A--0-0-0-0-0-0-0--0-0-0-0-0-0-0-----------------------------|
E-----------------------------------------------------------|

(Intro is played twice before Chris sings)

You stole me away with the mitts of a Midas
You held me till I turned into gold
And the pleas we made to the sheets there beside us
Said we never ever wanna grow old

Now this bed's caught fire
And the flame returns
And I'll lay with you waitin' just
Quietly bracin' for the crash and burn

(Strum these two chords during the "It'll come in the night..." part)

C#m
e-4-
B-5-
G-4-
D-6-
A-4-
E-x-

Bm?
e-2-
B-3-
G-2-
D-4-
A-2-
E-x-

      C#m
It'll come in the night, it won't make a sound
      Bm
It'll all be over real soon
       C#m
'Cause fallin' in love is just like fallin' apart
            Bm
And there's nothin' I can do
         D
No this ain't just a spark honey I'm
E
Fallin' apart with you

(Intro twice before Chris sings again)

e-----------------------------------------------------------|
B-----------------------------------------------------------|
G-------------------------------9-7-6-7-6-7-6-9-7-6-7-6-7-6-|
D-11-9-7-9-7-9-7-11-9-7-9-7-9-7-0-0-0-0-0-0-0-0-0-0-0-0-0-0-|
A--0-0-0-0-0-0-0--0-0-0-0-0-0-0-----------------------------|
E-----------------------------------------------------------|
Hot through the curtains the daylight's upon us
And it's singing your praises loud
And I can't say for certain I could keep every promise
But I could make 'em all right now

Cause this bed's caught fire
And the flame returns
And it rings like a symphony the
Prettiest revelry you ever heard

(Strum these two chords during the "It'll wake up the neighbors..." part)

C#m
e-4-
B-5-
G-4-
D-6-
A-4-
E-x-

Bm?
e-2-
B-3-
G-2-
D-4-
A-2-
E-x-

      C#m
It'll wake up the neighbors, it'll shake through the ground
      Bm
It'll break through the bricks and the blues
       C#m
'Cause fallin' in love is just like fallin' apart
            Bm
And there's nothin' I can do
         D
No this ain't just a spark honey I'm
E
Fallin' apart with you

(Play Intro twice before the Bridge)

       A
It'll crash with a quiet crescendo
      C#m
It'll crack through the glass of your walls
      Bm
It'll follow you wherever that you go
      D
'Till all that you can do is crawl
      A
It'll strike up a conversation
       C#m
And every word it says is true
       Bm
It's Heaven's own confirmation
         D
No this ain't just a spark honey I'm
E
Fallin' apart with you

(When playing live, Chris plays the intro riff two more times...Ending the second time with this)

e-------------------------------------|
B-------------------------------------|
G-9-7-6-7-6-7-6-9-7-6-7-6-7-6-4~-2~---|
D-0-0-0-0-0-0-0-0-0-0-0-0-0-0-0~-0~---|
A-------------------------------------|
E-------------------------------------|
Tap to rate this tab
 
# A B C D E F G H I J K L M N O P Q R S T U V W X Y Z