Song name
# A B C D E F G H I J K L M N O P Q R S T U V W X Y Z

Chris Ross - Just Like The Ocean tab

The tab isn't 100% since there isn't a really set strum pattern.  Youtube the song to 
get the timing and whatnot down.  CAPO THE 3RD FRET!!! :D  Good luck, this took me a while 
to learn and a long time to tab. :)

Intro:
e----------------------------------------|
B---3-3-------3-3----3-3-----------------|
G---0-0-----0-0-0----0-0-----------------|
D-------0h2-0------------0h2-2/4-4\2-0---|
A----------------------------------------|
E-3~--------------3~---------------------|

e----------------------------------------|
B---3-3-------3-3----3-3-----------------|
G---0-0-----0-0-0----0-0-----------------|
D-------0h2-0------------0h2-2/4-4\2-0---|
A-2~--------------2~---------------------|
E----------------------------------------|

e----------------------------------------|
B---3-3-------3-3----3-3-----------------|
G---0-0-----0-0-0----0-0-----------------|
D-------0h2-0------------0h2-2/4-4\2-0---|
A----------------------------------------|
E-3~--------------3~---------------------|

e----------------------------------------|
B---3-3-------3-3----3-3-----------------|
G---0-0-----0-0-0----0-0-----------------|
D-------0h2-0------------0h2-2/4-4\2-0---|
A-2~--------------2~---------------------|
E----------------------------------------|


(For the verses, just strum the two chords from the intro, sorta muted a bit)

For lack of proper names, I'm just going to call these chords G and G2...

G      G2
e-x-   e-x-
B-3-   B-3-|
G-0-   G-0-|
D-0-   D-0-|
A-x-   A-2-
E-3-   E-x-

G
Have you heard?
        G2
It's a steady stumble
  G
A lonely girl
         G2
Make you crack and crumble
   G
I ain't no kid babe
   G2
I slept through ages
   G
I read your face
      G2
And I kept the pages


(For the prechorus, play the intro again and sing)
e----------------------------------------|
B---3-3-------3-3----3-3-----------------|
G---0-0-----0-0-0----0-0-----------------|
D-------0h2-0------------0h2-2/4-4\2-0---|
A----------------------------------------|
E-3~--------------3~---------------------|

e----------------------------------------|
B---3-3-------3-3----3-3-----------------|
G---0-0-----0-0-0----0-0-----------------|
D-------0h2-0------------0h2-2/4-4\2-0---|
A-2~--------------2~---------------------|
E----------------------------------------|

e----------------------------------------|
B---3-3-------3-3----3-3-----------------|
G---0-0-----0-0-0----0-0-----------------|
D-------0h2-0------------0h2-2/4-4\2-0---|
A----------------------------------------|
E-3~--------------3~---------------------|

e----------------------------------------|
B---3-3-------3-3----3-3-----------------|
G---0-0-----0-0-0----0-0-----------------|
D-------0h2-0------------0h2-2/4-4\2-0---|
A-2~--------------2~---------------------|
E----------------------------------------|
And it's alright
If you walk away
And it's alright
If you wanna stay

e-x--x-x-x-x---x-x---x-x-x-x--x--------------------------------|
B-3~-3-3-3-3~--3-3~--3-3-3-3--3--3-3-3-3-3-3-3-3-3-3-3-3-3-3-3-|
G-0~-0-0-0-0~--0-0~--0-0-0-0--0--0-0-0-0-0-0-0-0-0-0-0-0-0-0-0-|
D-0~-0-0-0-0~--0-0~--0-0-0-0--0--4-4-4-5-5-5-5-4-4-4-2-2-2-2p0-|
A-x--x-x-x-x---x-x---x-x-x-x--x--0-0-0-0-0-0-0-0-0-0-0-0-0-0-0-|
E-3~-3-3-3-3~--3-5~--5-5-5-5~-5--5-5-5-5-5-5-5-5-5-5-5-5-5-5-5-|
And it rolls just like the ocean

e-x--x-x-x-x---x-x---x-x-x-x--x--------------------------------|
B-3~-3-3-3-3~--3-3~--3-3-3-3--3--3-3-3-3-3-3-3-3-3-3-3-3-3-3-3-|
G-0~-0-0-0-0~--0-0~--0-0-0-0--0--0-0-0-0-0-0-0-0-0-0-0-0-0-0-0-|
D-0~-0-0-0-0~--0-0~--0-0-0-0--0--4-4-4-5-5-5-5-4-4-4-2-2-2-2p0-|
A-x--x-x-x-x---x-x---x-x-x-x--x--0-0-0-0-0-0-0-0-0-0-0-0-0-0-0-|
E-3~-3-3-3-3~--3-5~--5-5-5-5~-5--5-5-5-5-5-5-5-5-5-5-5-5-5-5-5-|
And it rolls just like the ocean

e-x--x-x-x-x---x-x---x-x-x-x--x--------------------------------|
B-3~-3-3-3-3~--3-3~--3-3-3-3--3--3-3-3-3-3-3-3-3-3-3-3-3-3-3-3-|
G-0~-0-0-0-0~--0-0~--0-0-0-0--0--0-0-0-0-0-0-0-0-0-0-0-0-0-0-0-|
D-0~-0-0-0-0~--0-0~--0-0-0-0--0--4-4-4-5-5-5-5-4-4-4-2-2-2-2p0-|
A-x--x-x-x-x---x-x---x-x-x-x--x--0-0-0-0-0-0-0-0-0-0-0-0-0-0-0-|
E-3~-3-3-3-3~--3-5~--5-5-5-5~-5--5-5-5-5-5-5-5-5-5-5-5-5-5-5-5-|

e-x--x-x-x-x---x-x---x-x-x-x--x--------------------------------|
B-3~-3-3-3-3~--3-3~--3-3-3-3--3--3-3-3-3-3-3-3-3-3-3-3-3-3-3-3-|
G-0~-0-0-0-0~--0-0~--0-0-0-0--0--0-0-0-0-0-0-0-0-0-0-0-0-0-0-0-|
D-0~-0-0-0-0~--0-0~--0-0-0-0--0--4-4-4-5-5-5-5-4-4-4-2-2-2-2p0-|
A-x--x-x-x-x---x-x---x-x-x-x--x--0-0-0-0-0-0-0-0-0-0-0-0-0-0-0-|
E-3~-3-3-3-3~--3-5~--5-5-5-5~-5--5-5-5-5-5-5-5-5-5-5-5-5-5-5-5-|


e----------------------------------------|
B---3-3-------3-3----3-3-----------------|
G---0-0-----0-0-0----0-0-----------------|
D-------0h2-0------------0h2-2/4-4\2-0---|
A----------------------------------------|
E-3~--------------3~---------------------|

e----------------------------------------|
B---3-3-------3-3----3-3-----------------|
G---0-0-----0-0-0----0-0-----------------|
D-------0h2-0------------0h2-2/4-4\2-0---|
A-2~--------------2~---------------------|
E----------------------------------------|

e----------------------------------------|
B---3-3-------3-3----3-3-----------------|
G---0-0-----0-0-0----0-0-----------------|
D-------0h2-0------------0h2-2/4-4\2-0---|
A----------------------------------------|
E-3~--------------3~---------------------|

e----------------------------------------|
B---3-3-------3-3----3-3-----------------|
G---0-0-----0-0-0----0-0-----------------|
D-------0h2-0------------0h2-2/4-4\2-0---|
A-2~--------------2~---------------------|
E----------------------------------------|


G
Have you heard?
      G2
It's just like flyin'
 G
Above the world
    G2
To break this silence
   G
To hold you lord
   G2
To feel you breathin'
   G
A brief reward
    G2
A timeless reason

e----------------------------------------|
B---3-3-------3-3----3-3-----------------|
G---0-0-----0-0-0----0-0-----------------|
D-------0h2-0------------0h2-2/4-4\2-0---|
A----------------------------------------|
E-3~--------------3~---------------------|

e----------------------------------------|
B---3-3-------3-3----3-3-----------------|
G---0-0-----0-0-0----0-0-----------------|
D-------0h2-0------------0h2-2/4-4\2-0---|
A-2~--------------2~---------------------|
E----------------------------------------|

e----------------------------------------|
B---3-3-------3-3----3-3-----------------|
G---0-0-----0-0-0----0-0-----------------|
D-------0h2-0------------0h2-2/4-4\2-0---|
A----------------------------------------|
E-3~--------------3~---------------------|

e----------------------------------------|
B---3-3-------3-3----3-3-----------------|
G---0-0-----0-0-0----0-0-----------------|
D-------0h2-0------------0h2-2/4-4\2-0---|
A-2~--------------2~---------------------|
E----------------------------------------|
And it's alright
If you walk away
And it's alright
If you wanna stay

(The chorus is really tricky to play and sing.  I've posted the lyrics to it at the end)
e-x--x-x-x-x---x-x---x-x-x-x--x--------------------------------|
B-3~-3-3-3-3~--3-3~--3-3-3-3--3--3-3-3-3-3-3-3-3-3-3-3-3-3-3-3-|
G-0~-0-0-0-0~--0-0~--0-0-0-0--0--0-0-0-0-0-0-0-0-0-0-0-0-0-0-0-|
D-0~-0-0-0-0~--0-0~--0-0-0-0--0--4-4-4-5-5-5-5-4-4-4-2-2-2-2p0-|
A-x--x-x-x-x---x-x---x-x-x-x--x--0-0-0-0-0-0-0-0-0-0-0-0-0-0-0-|
E-3~-3-3-3-3~--3-5~--5-5-5-5~-5--5-5-5-5-5-5-5-5-5-5-5-5-5-5-5-|

e-x--x-x-x-x---x-x---x-x-x-x--x--------------------------------|
B-3~-3-3-3-3~--3-3~--3-3-3-3--3--3-3-3-3-3-3-3-3-3-3-3-3-3-3-3-|
G-0~-0-0-0-0~--0-0~--0-0-0-0--0--0-0-0-0-0-0-0-0-0-0-0-0-0-0-0-|
D-0~-0-0-0-0~--0-0~--0-0-0-0--0--4-4-4-5-5-5-5-4-4-4-2-2-2-2p0-|
A-x--x-x-x-x---x-x---x-x-x-x--x--0-0-0-0-0-0-0-0-0-0-0-0-0-0-0-|
E-3~-3-3-3-3~--3-5~--5-5-5-5~-5--5-5-5-5-5-5-5-5-5-5-5-5-5-5-5-|

e-x--x-x-x-x---x-x---x-x-x-x--x--------------------------------|
B-3~-3-3-3-3~--3-3~--3-3-3-3--3--3-3-3-3-3-3-3-3-3-3-3-3-3-3-3-|
G-0~-0-0-0-0~--0-0~--0-0-0-0--0--0-0-0-0-0-0-0-0-0-0-0-0-0-0-0-|
D-0~-0-0-0-0~--0-0~--0-0-0-0--0--4-4-4-5-5-5-5-4-4-4-2-2-2-2p0-|
A-x--x-x-x-x---x-x---x-x-x-x--x--0-0-0-0-0-0-0-0-0-0-0-0-0-0-0-|
E-3~-3-3-3-3~--3-5~--5-5-5-5~-5--5-5-5-5-5-5-5-5-5-5-5-5-5-5-5-|

e-x--x-x-x-x---x-x---x-x-x-x--x--------------------------------|
B-3~-3-3-3-3~--3-3~--3-3-3-3--3--3-3-3-3-3-3-3-3-3-3-3-3-3-3-3-|
G-0~-0-0-0-0~--0-0~--0-0-0-0--0--0-0-0-0-0-0-0-0-0-0-0-0-0-0-0-|
D-0~-0-0-0-0~--0-0~--0-0-0-0--0--4-4-4-5-5-5-5-4-4-4-2-2-2-2p0-|
A-x--x-x-x-x---x-x---x-x-x-x--x--0-0-0-0-0-0-0-0-0-0-0-0-0-0-0-|
E-3~-3-3-3-3~--3-5~--5-5-5-5~-5--5-5-5-5-5-5-5-5-5-5-5-5-5-5-5-|

e-x--x-x-x-x---x-x---x-x-x-x--x--------------------------------|
B-3~-3-3-3-3~--3-3~--3-3-3-3--3--3-3-3-3-3-3-3-3-3-3-3-3-3-3-3-|
G-0~-0-0-0-0~--0-0~--0-0-0-0--0--0-0-0-0-0-0-0-0-0-0-0-0-0-0-0-|
D-0~-0-0-0-0~--0-0~--0-0-0-0--0--4-4-4-5-5-5-5-4-4-4-2-2-2-2p0-|
A-x--x-x-x-x---x-x---x-x-x-x--x--0-0-0-0-0-0-0-0-0-0-0-0-0-0-0-|
E-3~-3-3-3-3~--3-5~--5-5-5-5~-5--5-5-5-5-5-5-5-5-5-5-5-5-5-5-5-|

e----------------------------------------|
B---3-3-------3-3----3-3-----------------|
G---0-0-----0-0-0----0-0-----------------|
D-------0h2-0------------0h2-2/4-4\2-0---|
A----------------------------------------|
E-3~--------------3~---------------------|

e----------------------------------------|
B---3-3-------3-3----3-3-----------------|
G---0-0-----0-0-0----0-0-----------------|
D-------0h2-0------------0h2-2/4-4\2-0---|
A-2~--------------2~---------------------|
E----------------------------------------|
Just like the ocean

e----------------------------------------|
B---3-3-------3-3----3-3-----------------|
G---0-0-----0-0-0----0-0-----------------|
D-------0h2-0------------0h2-2/4-4\2-0---|
A----------------------------------------|
E-3~--------------3~---------------------|

e----------------------------------------|
B---3-3-------3-3----3-3-----------------|
G---0-0-----0-0-0----0-0-----------------|
D-------0h2-0------------0h2-2/4-4\2-0---|
A-2~--------------2~---------------------|
E----------------------------------------|

e-x--x-x-x-x---x-x---x-x-x-x--x--------------------------------|
B-3~-3-3-3-3~--3-3~--3-3-3-3--3--3-3-3-3-3-3-3-3-3-3-3-3-3-3-3-|
G-0~-0-0-0-0~--0-0~--0-0-0-0--0--0-0-0-0-0-0-0-0-0-0-0-0-0-0-0-|
D-0~-0-0-0-0~--0-0~--0-0-0-0--0--4-4-4-5-5-5-5-4-4-4-2-2-2-2p0-|
A-x--x-x-x-x---x-x---x-x-x-x--x--0-0-0-0-0-0-0-0-0-0-0-0-0-0-0-|
E-3~-3-3-3-3~--3-5~--5-5-5-5~-5--5-5-5-5-5-5-5-5-5-5-5-5-5-5-5-|

e-x--x-x-x-x---x-x---x-x-x-x--x--------------------------------|
B-3~-3-3-3-3~--3-3~--3-3-3-3--3--3-3-3-3-3-3-3-3-3-3-3-3-3-3-3-|
G-0~-0-0-0-0~--0-0~--0-0-0-0--0--0-0-0-0-0-0-0-0-0-0-0-0-0-0-0-|
D-0~-0-0-0-0~--0-0~--0-0-0-0--0--4-4-4-5-5-5-5-4-4-4-2-2-2-2p0-|
A-x--x-x-x-x---x-x---x-x-x-x--x--0-0-0-0-0-0-0-0-0-0-0-0-0-0-0-|
E-3~-3-3-3-3~--3-5~--5-5-5-5~-5--5-5-5-5-5-5-5-5-5-5-5-5-5-5-5-|


e----------------------------------------|
B---3-3-------3-3----3-3-----------------|
G---0-0-----0-0-0----0-0-----------------|
D-------0h2-0------------0h2-2/4-4\2-0---|
A----------------------------------------|
E-3~--------------3~---------------------|

e----------------------------------------|
B---3-3-------3-3----3-3-----------------|
G---0-0-----0-0-0----0-0-----------------|
D-------0h2-0------------0h2-2/4-4\2-0---|
A-2~--------------2~---------------------|
E----------------------------------------|

e----------------------------------------|
B---3-3-------3-3----3-3-----------------|
G---0-0-----0-0-0----0-0-----------------|
D-------0h2-0------------0h2-2/4-4\2-0---|
A----------------------------------------|
E-3~--------------3~---------------------|

e----------------------------------------|
B---3-3-------3-3----3-3-----------------|
G---0-0-----0-0-0----0-0-----------------|
D-------0h2-0------------0h2-2/4-4\2-0---|
A-2~--------------2~---------------------|
E----------------------------------------|
And it's alright
If you walk away
And it's alright
If you wanna stay

e----------------------------------------|
B---3-3-------3-3----3-3-----------------|
G---0-0-----0-0-0----0-0-----------------|
D-------0h2-0------------0h2-2/4-4\2-0---|
A----------------------------------------|
E-3~--------------3~---------------------|

e----------------------------------------|
B---3-3-------3-3----3-3-----------------|
G---0-0-----0-0-0----0-0-----------------|
D-------0h2-0------------0h2-2/4-4\2-0---|
A-2~--------------2~---------------------|
E----------------------------------------|

e----------------------------------------|
B---3-3-------3-3----3-3-----------------|
G---0-0-----0-0-0----0-0-----------------|
D-------0h2-0------------0h2-2/4-4\2-0---|
A----------------------------------------|
E-3~--------------3~---------------------|

e----------------------------------------|
B---3-3-------3-3----3-3-----------------|
G---0-0-----0-0-0----0-0-----------------|
D-------0h2-0------------0h2-2/4-4\2-0---|
A-2~--------------2~---------------------|
E----------------------------------------|



(Chorus Lyrics)
And it rolls just like the ocean crashin' down on the rocks on the sound and it's
Just Like the water, just like the water
Down at your feet, shallow and deep and it's
Just like the water, just like the water
Breakin' apart and teaming with sharks and it's
Just like the water, just like the water
Now it's so blue, it's a slave to the moon and it's
Just like the water, oh just like the ocean
Tap to rate this tab
# A B C D E F G H I J K L M N O P Q R S T U V W X Y Z