Song name
# A B C D E F G H I J K L M N O P Q R S T U V W X Y Z

Chris Shiflett And The Dead Peasants - Get Along tab

Song: Get Along
Band: Chris Shiflett And The Dead Peasants

I'm not 100% sure but it's near!

Intro

Acoustic Guitar
e|-1-1-1-1-1-1-1-1-1-1-1-1-1-1-1-1/6-6-6-6-6-6-6-6-6-6-6-6-6-6-6-6-|
B|-1-1-1-1-1-1-1-1-1-1-1-1-1-1-1-1/6-6-6-6-6-6-6-6-6-6-6-6-6-6-6-6-|
G|-2-2-2-0-0-0-2-2-2-0-0-0-2-0-2-0/7-7-7-0-0-0-7-7-7-0-0-0-7-0-7-0-|
D|-3-3-3-3-3-3-3-3-3-3-3-3-3-3-3-3/8-8-8-8-8-8-8-8-8-8-8-8-8-8-8-8-| x2
A|-3-3-3-3-3-3-3-3-3-3-3-3-3-3-3-3/8-8-8-8-8-8-8-8-8-8-8-8-8-8-8-8-|
E|-----------------------------------------------------------------|

Electric Guitar
e|-1~----------------------------1/6---------------6~-----x-x-x--x-|
B|-1~----------------------------1/6---------------6~-----x-x-x--x-|
G|-2~----------------------------2/7-----------7~---------x-x-x--x-|
D|-3~----------------------------3/8-----------8~---------x-x-x--x-|
A|-3~----------------------------3/8~---------------------x-x-x--x-|
E|-1~----------------------------1/6~---------------------x-x-x--x-|

then
e|---------------------------------------------------------------8-|
B|-----------------------------------------------------------------|
G|-----------------------------------------------------------------|
D|--------7~-----5~----3~----------------7~-----5~----3~----5--7---|
A|-8~------------------------5--3----------------------------------|
E|--------------------------------/6-------------------------------|


Acoustic guitar:

Verse 1:
         F
Well you know
            Bb
It's been a long time
      F
She's alone
              Bb
But she's not lonely$
     F
he's gone
             Bb
When he gets angry
       F
Saddle up


Bridge:
                   Bb
But didn't me most anyway
C
Go and catch your eye (go and catch your eye)
dm                   Bb
Straight to New York City


Verse 2:
          F
She walks up
        Bb
Seventh avenue
        F
Needs a cup
             Bb
Of something stronger
               F
What helps him up
      Bb
At niagara
     F
He's embarrassed
                       Bb
But doesn't know quite what to say


Bridge:
C
You should catch a ride (you should catch a ride)
dm         Bb
Back to california
C
I will be all right (l will be all right)
      dm         Bb               
So go back to california
 

Chorus (play the intro riff):
    F
Get along
                     Bb
You can't outrun the empty now
    F
Get along
                     Bb
You can't outrun the empty now
 
Solo: Intro + Bridge

Verse 3:
F
He can't remember how it started
Bb
Their hearts are separated by miles in the dark
F 
What were we supposed to be in this life
Bb
Roommates,best friends, lovers,husband,wife
F
Now he's moved on to another one, goodbye
Bb
Now he's moved on to another one, goodbye
C
Gonna catch a ride (gonna catch a ride)
dm                   Bb
Straight to new york city
C
You should catch a ride (you should catch a ride)
dm                 Bb
Away from new york city 


Chorus (play the intro riff):
    F
Get along
                     Bb
You can't outrun the empty now
    F
Get along
                     Bb
You can't outrun the empty now
   F
Get along
                     Bb
You can't outrun the empty now
    F
Get along
                     Bb
You can't outrun the empty now


Play intro Riff until the end



Johnathan D. Park
Tap to rate this tab
 
# A B C D E F G H I J K L M N O P Q R S T U V W X Y Z