Song name
# A B C D E F G H I J K L M N O P Q R S T U V W X Y Z

Chris Spheeris - Rain Eros tab

Tabbed By: 'x-centrik Usman

Description: This is the intro part which i played throughout the song.

e|-8-8--7--5/0--0--7--8--10--8--5--8----8h10p8--7--5/0--8-8--10--8--7/5-|
B|----------------------------------------------------------------------|
G|----------------------------------------------------------------------|
D|----------------------------------------------------------------------|
A|----------------------------------------------------------------------|
E|----------------------------------------------------------------------|



e|-13-13--12--10--6----6--12--13--15--13--10--13-|
B|-----------------------------------------------|
G|-----------------------------------------------|
D|-----------------------------------------------|
A|-----------------------------------------------|
E|-----------------------------------------------|



e|-12h13p12--10--8--10-10--8--7--7-8-10-8-7-5--|
B|---------------------------------------------|
G|---------------------------------------------|
D|---------------------------------------------|
A|---------------------------------------------|
E|---------------------------------------------|


____________________________________________________________________________



Description: This is the part followed by intro/

e|-0--12---12-12-13-12-10-12-10-8-10-8-7-8-10----|
B|-----------------------------------------------|
G|-----------------------------------------------|
D|-----------------------------------------------|
A|-----------------------------------------------|
E|-----------------------------------------------|



e|-0--10---10-10-12-10-8-10-8-7-8-7-5-5-----|
B|------------------------------------------|
G|------------------------------------------|
D|------------------------------------------|
A|------------------------------------------|
E|------------------------------------------|



e|-0--7--10--8--7---7--10--8--7--8--7--5-----|
B|-------------------------------------------|
G|-------------------------------------------|
D|-------------------------------------------|
A|-------------------------------------------|
E|-------------------------------------------|

http://www.chrisspheeris.com/

These two parts are repeated thruoght the song but sometimes in different patterns. You 
can just listen to the song and play according to the flow.
Tap to rate this tab
# A B C D E F G H I J K L M N O P Q R S T U V W X Y Z