Song name
# A B C D E F G H I J K L M N O P Q R S T U V W X Y Z

Chris T-t - Open Books tab

Song: Open Books
Artist: Chris T-T
Album: Panic Attack At Sainsbury's

INTRO/VERSE

Guitar 1
E|-----------------------------------|
B|-----------------------------------|
G|------9-----9---------9-----9------|
D|----9-----9-----9---7-----7-----7--|
A|--7-----7-----7---9-----9-----9----|
E|-----------------------------------|

Guitar 2
E|-----------------------------------|
B|-----------------------------------|
G|-----------------------------------|
D|-----------------------------------|
A|-----------------------------------|
E|--0~----0-3---4---5~----5-7--/10---|


CHORUS 1

Guitar 1
E|------------------------------------------|
B|-----9~--------7~--------9~--------5~-----|
G|-----9~--------7~--------9~--------6~-----|
D|-----9~--------7~--------9~--------6~-----|
A|--7~--------5~--------7~--------4~--------|
E|------------------------------------------|

Guitar 2
E|------------------------------------------|
B|-----9~--------7~--------9~--------5~-----|
G|----9~--------7~--------9~--------6~------|
D|---9~--------7~--------9~--------6~-------|
A|--7~--------5~--------7~--------4~--------|
E|------------------------------------------|

Guitar 1
E|----------------------------------------------------|
B|-----9~--------7~---------0-------0-------0---0--0--|
G|-----9~--------7~---------2-------2-------2---2--2--|
D|-----9~--------7~-------2---2---2---2---2---2-------|
A|--7~--------5~--------0-------0-------0-------0--0--|
E|----------------------------------------------------|

Guitar 2
E|----------------------------------------------------|
B|-----9~--------7~--------0~-------------------------|
G|----9~--------7~--------2~--------------------------|
D|---9~--------7~--------2~---------------------------|
A|--7~--------5~--------0~----------------------------|
E|----------------------------------------------------|


CHORUS 2

Guitar 1
E|------------------------------------------|
B|-----9~--------7~--------9~--------5~-----|
G|-----9~--------7~--------9~--------6~-----|
D|-----9~--------7~--------9~--------6~-----|
A|--7~--------5~--------7~--------4~--------|
E|------------------------------------------|

Guitar 2
E|------------------------------------------|
B|-----9~--------7~--------9~--------5~-----|
G|----9~--------7~--------9~--------6~------|
D|---9~--------7~--------9~--------6~-------|
A|--7~--------5~--------7~--------4~--------|
E|------------------------------------------|

Guitar 1
E|------------------------------------------|
B|-----9~--------7~--------9~--------5~-----|
G|-----9~--------7~--------9~--------6~-----|
D|-----9~--------7~--------9~--------6~-----|
A|--7~--------5~--------7~--------4~--------|
E|------------------------------------------|

Guitar 2
E|------------------------------------------|
B|-----9~--------7~--------9~--------5~-----|
G|----9~--------7~--------9~--------6~------|
D|---9~--------7~--------9~--------6~-------|
A|--7~--------5~--------7~--------4~--------|
E|------------------------------------------|

Guitar 1
E|--------------------------------------------------------|
B|-----5~--------4~-----0--0-0~---0--0-0~-------0---0--0--|
G|-----5~--------4~-----2--2-2~---2--2-2~-------2---2--2--|
D|-----5~--------4~---------------------------2---2-------|
A|--3~--------2~--------0--0-0-0--0--0-0-0--0-------0--0--|
E|--------------------------------------------------------|

Guitar 2
E|--------------------------------------------------------|
B|-----5~--------4~--------0~-----------------------------|
G|----5~--------4~--------2~------------------------------|
D|---5~--------4~--------2~-------------------------------|
A|--3~--------2~--------0~--------------------------------|
E|--------------------------------------------------------|



INTRO/VERSE x8
CHORUS 1
INTRO/VERSE x6
CHORUS 2
INTRO/VERSE x3

FINAL CHORD

Guitar 1
E|---------|
B|-----9~--|
G|-----9~--|
D|-----9~--|
A|--7~-----|
E|---------|

Guitar 2
E|--------|
B|-----9--|
G|----9---|
D|---9----|
A|--7-----|
E|--------|
Tap to rate this tab
 
# A B C D E F G H I J K L M N O P Q R S T U V W X Y Z