Guitaretab - guitar tabs
Song name
# A B C D E F G H I J K L M N O P Q R S T U V W X Y Z

Chris Thomas King - Hard Time Killing Floor Blues tab

tuning: DADFAD

\slide down. /slide up.   (_) left hand pluck.

Intro
D|----------------------------0-----------------------------------------------|
A|-------------------------------3--------------------------------------------|
F|----------------------------------4-----------------------------------------|
D|-3--0--2--0-----------0--------------0--------------------------------------|
A|-------------3--0--2--------------------------------------------------------|
D|-------------------------0--------------------------------------------------|

verse 1
D|----------------------------------------------------------------------------|
A|----------------------------------------------------------------------------|
F|----------------------------------------------------------------------------|
D|------0-3-----------3---0-----------------------------5\4-(0)---------------|
A|--0-3-------0-3---0---------0-2-0-3---0-2-0-----0-2-------------------------|
D|--------------------------------------------5-------3-------0---------------|
[ Tab from: http://www.guitaretab.com/c/chris-thomas-king/166420.html ]
D|------0--------------0--------------0------------------------------------------|
A|------0--------------0--------------0------------------------------------------|
F|------0--------------0--------------0------------------------------------------|
D|-5/7\5-5\4-(0)--5/7\5-5\4-(0)--5/7\5-5\4-(0)-----------------------------------|
A|-------------------------------------------------------------------------------|
D|-------------0---------------0---------------0---------------------------------|

D|---------------------0--0---------------------------------------------------|
A|---------------0-2-0-3----3-------------------------------------------------|
F|---------------------4------4-----------------------------------------------|
D|---0---0---0------------------0---------------------------------------------|
A|-3---2---1---0--------------------------------------------------------------|
D|----------------------------------------------------------------------------|

D|----------------------------------------------------------------------------|
A|----------------------------------------------------------------------------|
F|----------------------------------------------------------------------------|
D|-----0-3-----0-2-----0-3-2---0---------------------------------5\4-(0)------|
A|-0-3-------0-3-----0-3-----3-------0-2-0-3---0-2-0-----0-2-0----------------|
D|-------------------------------0-------------------5---------3-------0------|

Thats the main part of the song.   you play each part three to four times.