Song name
# A B C D E F G H I J K L M N O P Q R S T U V W X Y Z

Chris Tomlin - Forever tab

Help us improve GuitareTab! Take a short survey!
Play all chord with powerchord.
Distorted guitar with reverb and no delay.

Play G for 6 beats
e-------------------------|
h-------------------------|
g-16-14-------------------|
d-------17-14-------------|
a-------------------------|
E-------------------------|

Play E for 6 beats
e-------------------------|
h-------------------------|
g-16-14-------------------|
d-------17-14-------------|
a-------------------------|
E-------------------------|

Play D for 8 beats
Play C for 8 beats
Related for Forever tab