Song name
# A B C D E F G H I J K L M N O P Q R S T U V W X Y Z

Chris Tomlin - Everlasting God tab

Band:   Chris Tomlin
Song:   Everlasting God (Intro)
Album:  See the Morning
Tuning: Standard
Capo:   6th Fret

Tab relative to capo.

Tabbed By:  Sam Stevens
Email:      Sstevens2009@gmail.com
==========================================================

E--------------------------------------------------------|
B--------------------------------------------------------|
G--------------------------------------------------------|
D--------------------------------------------------------|
A---------2-3-2-3-3--3-2-0---0-2-3--3-2-0--0-2-3--3-2-0--|
E--3--3\5------------------3-------------3--------------3|
       ^ Can also be played as a hammer on
E--------------------------------------------------------|
B--------------------------------------------------------|
G--------------------------------------------------------|
D--------------------------------------------------------|
A-------0-2-3-2-3-3--3-2-0---0-2-3--3-2-0--0-2-3--3-2-0--|
E-----3--------------------3-------------3--------------3|

There was only one tab for the intro that I found, and it
wasn't exactly right.  This is what it sounds like to me.

The rest of the song is mainly chords... In the verse
though, he plays a variation of the intro... I haven't
listened to it enough to be sure, but its much the same
and shouldn't be hard to figure out.


| /  slide up
| \  slide down
| h  hammer-on
| p  pull-off
| ~  vibrato
| +  harmonic
| x  Mute note
==========================================================
Tap to rate this tab
 
# A B C D E F G H I J K L M N O P Q R S T U V W X Y Z