Song name
# A B C D E F G H I J K L M N O P Q R S T U V W X Y Z

Chris Tomlin - Lamb Of God tab

-------------------------------------------------------------------------------
			     LAMB OF GOD - Chris Tomlin
-------------------------------------------------------------------------------
Tabbed by: Ook Tong
Email: oh_ok27@yahoo.com.au

Tuning: Standard

This is played before the 3rd last the chorus.

e|---------------------------------------------------------------------------|
B|---------------------------------------------------------------------------|
G|---------------------------------------------------------------------------|
D|---5--7--7-9-9----5--7--9-9-10-10------9h10-9--7h9-7---7h9-7-5------5------|
A|------------------------------------------------------------------7--------|
E|-----------------------------------------------------------------------8-7-|

e|----------------------|
B|----------------------|
G|----------------------|
D|----------------------|
A|----------------------|
E|--10h12-10---8--7-----|


| /  slide up
| \  slide down
| h  hammer-on
| p  pull-off
| ~  vibrato
| +  harmonic
| x  Mute note
===============================================================================
Tap to rate this tab
# A B C D E F G H I J K L M N O P Q R S T U V W X Y Z