Song name
# A B C D E F G H I J K L M N O P Q R S T U V W X Y Z

Chris Tomlin - Not To Us tab

                                   NOT FOR US
                           As recorded by Chris Tomlin
      (From the 2009 Album ORIGINAL RECORDING IN B...THIS TRANSCRIPT IN A)

Transcribed by Chris Cavendish

           A
      x 0 2 2 2 0

 4/4
  Gtr I
|----17----17----17----17----17----17-|----17----17----17----17----17----17--||
|-15----15----15----15----15----15----|-15----15----15----15----15----15----o||
|-------------------------------------|--------------------------------------||
|-------------------------------------|--------------------------------------||
|-------------------------------------|-------------------------------------o||
|-------------------------------------|--------------------------------------||


  A
|-------------------------|-------------------------|
|-15----15-14----14-14----|-14-14-14-14-14-14-14-14-|
|----14-------14-------14-|-------------------------|
|-------------------------|-------------------------|
|-------------------------|-------------------------|
|-------------------------|-------------------------|


  D
|-------------------------|-------------------------|
|-15----15-14----14-14----|-15----15-14----14-14----|
|----14-------14-------14-|----14-------14-------14-|
|-------------------------|-------------------------|
|-------------------------|-------------------------|
|-------------------------|-------------------------|


  F#m7                      Esus4
|-------------------------|-------------------------|
|-14----14-15----14-14----|-14-14-14-14-14-14-14-14-|
|----14-------14-------14-|-------------------------|
|-------------------------|-------------------------|
|-------------------------|-------------------------|
|-------------------------|-------------------------|


|----------17----------17-|----------17----------17-||
|-15----15----15----15----|-15----15----15----15----||
|----14----------14-------|----14----------14-------||
|-------------------------|-------------------------||
|-------------------------|-------------------------||
|-------------------------|-------------------------||


|-------|
|-14----|
|-------|
|-------|
|-------|
|-------|
|
|-------|
|-------|
|-------|
|-------|
|-------|
|-------|

Tap to rate this tab
# A B C D E F G H I J K L M N O P Q R S T U V W X Y Z