Song name
# A B C D E F G H I J K L M N O P Q R S T U V W X Y Z

Chris Tomlin - No Love Greater tab

Help us improve GuitareTab! Take a short survey!
[Solo]
E|--------------------------------------------------------------------|
B|-------------------------------------15-----------------------------|
G|-17-16-14s12----17-16-14s12s14-16-17----16-12----17-16-14-s12s11s12-|
D|--------------------------------------------------------------------|
A|--------------------------------------------------------------------|
E|--------------------------------------------------------------------|


E|-------------19-19-17-15-19s20-19-b19-17s15-|
B|----------15--------------------------------|
G|-14-16-17-----------------------------------|
D|--------------------------------------------|
A|--------------------------------------------|
E|--------------------------------------------|

later...

E|-b19-15-----------------------|
B|--------15--------------------|
G|-----------17-b16-14h16-14s12-|
D|------------------------------|
A|------------------------------|
E|------------------------------|
Related for No Love Greater tab