Song name
# A B C D E F G H I J K L M N O P Q R S T U V W X Y Z

Chris Tomlin - On Our Side tab

God is on our side - Chris Tomlin

This tune is in Bb on the recording.  you can find the chords charted elsewhere
on this site.

These are the the pieces of this song you need to learn.  Play them with the song
to see where the parts land.

intro G2
e|----------------------------------------------------------------------------|
B|---3-1-----4-3-1------------------------------------------------------------|
G|-------3--------------------------------------------------------------------|
D|----------------------------------------------------------------------------|
A|----------------------------------------------------------------------------|
E|----------------------------------------------------------------------------|

 intro G1
e|----------------------------------------------------------------------------|
B|-------3---4----------------------------------------------------------------|
G|-------3---3----------------------------------------------------------------|
D|----------------------------------------------------------------------------|
A|---1------------------------------------------------------------------------|
E|----------------------------------------------------------------------------|

 intro G1 & 2 hybrid (if you are the only guitar player, this is a combination of
                      Guitar 1 & 2)
e|----------------------------------------------------------------------------|
B|-------3---1-----------4---3---1--------------------------------------------|
G|-------3---3---3-------3---3---3--------------------------------------------|
D|---------------3------------------------------------------------------------|
A|---1---------------1--------------------------------------------------------|
E|----------------------------------------------------------------------------|

  The chorus chords play a funky rythm, so, this is where to play the chords
  listen to the song to get the rythm.

 chorus
e|--10--------------11--------------------------------------------------------|
B|--11--------------11--------------------------------------------------------|
G|--10---------------8--------------------------------------------------------|
D|-------------------8--------------------------------------------------------|
A|----------------------------------------------------------------------------|
E|----------------------------------------------------------------------------|

  Again, these are the notes, listen to the song to get the rythm.

 2nd verse
e|----------------------------------------------------------------------------|
B|----------------------------------------------------------------------------|
G|----------------------------------------------------------------------------|
D|---3-5-6-5-6-5-3-5-5-6-8-6-8-6-8--------------------------------------------|
A|----------------------------------------------------------------------------|
E|----------------------------------------------------------------------------|


 solo
e|-----------------------------------6-6--------------------------------------|
B|-------------9-------------------------9--9b10------------------------------|
G|-----6-8-8b9---8-6-------------6--------10-----8-6-8-8-6-----------6-8------|
D|---8---------------8-6-8---6-8---8-----------------------8-6-8---8-----8----|
A|----------------------------------------------------------------------------|
E|----------------------------------------------------------------------------|

 solo
e|------------------------------------------------------------18----18----18--|
B|---9-9-9---9-9-9--111111--111111--141414--14141414--14--1718--1718--1718----|
G|--101010--101010--121212--121212--151515--151515--15--15--------------------|
D|----------------------------------------------------------------------------|
A|----------------------------------------------------------------------------|
E|----------------------------------------------------------------------------|

 solo
e|------18----18----------------------------------------------------------------|
B|--1718--1718----11---9----7----5----3-----------------------------------------|
G|----------------13b--11b--9b--7b---5b-----------------------------------------|
D|------------------------------------------------------------------------------|
A|------------------------------------------------------------------------------|
E|------------------------------------------------------------------------------|


 i relied some on other's tabs for the solo parts, they have them in the wrong key
 though, so, I transposed them.  Youtube the song, use these parts.  Have fun.

 ~Redviper


Compiled with TabPlayer :: http://www.simoneperandini.com/tabplayer/
Tap to rate this tab
 
# A B C D E F G H I J K L M N O P Q R S T U V W X Y Z