Guitaretab - guitar tabs
Song name
# A B C D E F G H I J K L M N O P Q R S T U V W X Y Z

Chris Tomlin - Our God Is Greater tab

Our God is Greater- song by Chris Tomlin

Tabbed from the Passion 2010 Awakening CD.

	I'm pretty sure most of this is right. It's split into two sections one 
for each guitar part.
 If you need to you can probably get by just fine
dropping either one if you don't have enough guitar players. I take no credit for figuing out
 the delay guitar intro as that credit goes to a friend.

This is in Abm, I think. (The rythmn guitar starts on an Abm chord.)
If that means nothing to you;
These parts should work for if your rythmn guitar is capo 4 and starts on Em.

	Alternating guitar part.	

	Intro/Verse

	Note: I believe that the guitar starts off clean w/ reverb and a little delay
        and then takes on a slight overdrive after the first chorus.

	Also, during the bridge a varation of this is played. 
	I believe that it's the same fingering except both
	notes are played at once. The rythmn changes during the bridge,
	but just follow the rythmn guitar.
	

e|---------|---------|---------|---------|
B|4-4-4-4--|5-5-5-5--|4-4-4-4--|2-2-2-2--| 
G|-4-4-4-4-|-4-4-4-4-|-4-4-4-4-|-4-4-4-4-|
D|---------|---------|---------|---------|
A|---------|---------|---------|---------|
E|---------|---------|---------|---------|

	Chorus

e|---------|---------|---------|---------|
B|4-4-5-5--|4-4-4-4--|4-4-5-5--|4-4-4-4--|
G|-4-4-4-4-|-4-4-4-4-|-4-4-4-4-|-4-4-4-4-|
D|---------|---------|---------|---------|
A|---------|---------|---------|---------|
E|---------|---------|---------|---------|

e|---------|---------|2-2-2-2--|2--------|
B|2-2-2-2--|2-2-2-2--|---------|---------|
G|-4-4-4-4-|-4-4-4-4-|-4-4-4-4-|---------|
D|---------|---------|---------|---------|
A|---------|---------|---------|---------|
E|---------|---------|---------|---------|

	Delay guitar part (w/distortion?)
	
	Uses lots of reverb and I believe dotted quarter note delay.
        I didn't include them in the tab, but also use lots of slides.
	
	Intro

	Note: Those are 12's,16's,14's etc. 
        There are no 1's mixed in on this tab.

e|-----------------------|----------------------|
B|12-12-12-12-12-12-12-12|9--9--9--9--9--9--9--9| As far as I can tell it 
G|-----------------------|----------------------| goes down to 9
D|-----------------------|----------------------| this one time.
A|-----------------------|----------------------|
E|-----------------------|----------------------|

e|-----------------------|-----------------------|
B|16-16-16-16-16-16-16-16|14-14-14-14-14-14-14-14|
G|-----------------------|-----------------------|
D|-----------------------|-----------------------|
A|-----------------------|-----------------------|
E|-----------------------|-----------------------|
[ Tab from: http://www.guitaretab.com/c/chris-tomlin/217889.html ]
e|-----------------------|-----------------------|
B|12-12-12-12-12-12-12-12|17-17-17-17-17-17-17-17|
G|-----------------------|-----------------------|
D|-----------------------|-----------------------|
A|-----------------------|-----------------------|
E|-----------------------|-----------------------|

e|-----------------------|-----------------------|
B|16-16-16-16-16-16-16-16|14-14-14-14-14-14-14-14|
G|-----------------------|-----------------------|
D|-----------------------|-----------------------|
A|-----------------------|-----------------------|
E|-----------------------|-----------------------|

	Verse

e|-----------------------|-----------------------|
B|12-12-12-12-17-17-17-17|16-16-16-16-16-16-16-16|
G|-----------------------|-----------------------|
D|-----------------------|-----------------------|
A|-----------------------|-----------------------|
E|-----------------------|-----------------------|

e|-----------------------|-----------------------|
B|12-12-12-12-17-17-17-17|16-16-16-16-16-16-16-16|
G|-----------------------|-----------------------|
D|-----------------------|-----------------------|
A|-----------------------|-----------------------|
E|-----------------------|-----------------------|

e|-----------------------|-----------------------|
B|14-14-14-14-14-14-14-14|14-14-14-14-14-14-14-14|
G|-----------------------|-----------------------|
D|-----------------------|-----------------------|
A|-----------------------|-----------------------|
E|-----------------------|-----------------------|

e|14----14----14----14---|14---------------------|
B|---14----14----14----14|-----------------------|
G|-----------------------|-----------------------|
D|-----------------------|-----------------------|
A|-----------------------|-----------------------|
E|-----------------------|-----------------------|

	Chorus

e|-----------------------|-----------------------|
B|12-12-12-12-12-12-12-12|17-17-17-17-17-17-17-17|
G|-----------------------|-----------------------|
D|-----------------------|-----------------------|
A|-----------------------|-----------------------|
E|-----------------------|-----------------------|

e|-----------------------|-----------------------|
B|16-16-16-16-16-16-16-16|14-14-14-14-14-14-14-14|
G|-----------------------|-----------------------|
D|-----------------------|-----------------------|
A|-----------------------|-----------------------|
E|-----------------------|-----------------------|

	Bridge
	Same as chorus but follow the rythmn guitar.

Enjoy.
If there are any mistakes my e-mail address is:
t3h_chosen_1@hotmail.com
Please be specific and give the e-mail a meaningful Subject or I will probably ignore it.
I claim NO authorship to this song.
Related for Our God Is Greater tab
Our God Is Greater chords by Chris Tomlin