Song name
# A B C D E F G H I J K L M N O P Q R S T U V W X Y Z

Chris Tomlin - Forever chords

Highlighted       Show chord diagrams
Forever
Chris Tomlin
Key A   Tempo

    A                                                    F#m7
E|---------------------------------------------------------------------------------|
B|--------14-----------------------------------------------------------------------|
G|-----14--14----14------14--14------14------14----14-------14----14--14------14---|
D|--16--------14----14-----------14-------16----16-------16----16---------16-------|
A|---------------------------------------------------------------------------------|
E|---------------------------------------------------------------------------------|
    E                                                 D
E|------------------------------------------------------------|
B|------------------------------------------------------------|
G|------16----16--16------16--16--------16------16--------14--|etc.
D|--14----------------14------------14------14--------10------|
A|------------------------------------------------------------|
E|------------------------------------------------------------|
This guitar has flange and distortion on it. Flanger runs the entire song.

Intro - first time guitar only - drums in on 2nd with acoustic downstrokes
||:  A   F#m7  E   D   :|| 3X


Verse 1 (0:33)
A
Give thanks to the Lord our God and King
A
His love endures forever
D
For He is good, He is above all things
A
His love endures forever
     E            D/F#
Sing praise, sing praise

Verse 2 (0:58)
A
With a mighty hand and outstretched arm
A
His love endures forever
D
For the life thatís been reborn
    A
His love endures forever


     E            D/F#
Sing praise, sing praise
     E            D/F#
Sing praise, sing praise


Chorus (1:29)
A
Forever God is faithful
F#m7
Forever God is strong
E
Forever God is with us
D           A {hold for 4 measures}
Forever.....forever

Verse (1:54)
A
From the rising to the setting sun
A
His love endures forever
D
By the grace of God we will carry on
A
His love endures forever


     E            D/F#
Sing praise, sing praise
     E            D/F#
Sing praise, sing praise

Chorus (2:27)
A
Forever God is faithful
F#m7
Forever God is strong
E
Forever God is with us
D
Forever

A
Forever God is faithful
F#m7
Forever God is strong
E
Forever God is with us
D           A {hold 4 measures}
Forever.....forever

Break Spoken Word (2:58)
A2
"Give thanks to the Lord for he is good. Give thanks to the God of gods. Give
thanks to the lord of lords. To Him who alone does great wonders. For by His
understanding made he heavens and spread out the earth upon the waters. Who made
the great light. To the one who remembered us in our lowest state and freed us
from our enemies and gives food to every creature. His love endures forever."


Lead Break (3:40)

E|--0-----0---0---0-------0-----0---0---0---|
B|--15----14--15--12------14----14--15--10--|
G|------------------------------------------|
D|------------------------------------------|
A|------------------------------------------|
E|------------------------------------------|

     E            D/F#
Sing praise, sing praise
     E            D/F#
Sing praise, sing praise


Chorus (3:58)
A
Forever God is faithful
F#m7
Forever God is strong
E
Forever God is with us
D
Forever

repeat Chorus 3 more times

Ending
A {sustained chord}
Tap to rate this tab
 
# A B C D E F G H I J K L M N O P Q R S T U V W X Y Z