Song name
# A B C D E F G H I J K L M N O P Q R S T U V W X Y Z

Chris Tomlin - Unfailing Love tab

here are the lead parts to the whole song
alternate between those two parts (listen to the recording)
this is in the key of G# (Chris puts a capo on first fret)

key
h=hammer on
p=pull off
/=slide

Intro
e-3---3-3-3-|
b-0---0-0-0-|
g-0---0-0-0-|
d-0---0-0-0-|
a-0h2-2-2-2-|
e-3---3-3-3-|

Lead Parts
e-----------------|
b----11h13p11-----|
g-----------12-13-|
d--13-------------|
a-----------------|
e-----------------|

e----------------------|
b----11h13p11----------|
g-----------12-13------|
d--13------------13/15-|
a----------------------|
e----------------------|
Tap to rate this tab
 
# A B C D E F G H I J K L M N O P Q R S T U V W X Y Z