Chris Tomlin - Our God Is Greater tab

This is for joe jones, so thank him for asking me to do this. This is the electric 
part if you want any other parts just email me .

intro

E-------------------------------------------------------------------------|
A-------------------------------------------------------------------------|
D-------------------------------------------------------------------------|
G-------------------------------------------------------------------------|
B-12-x8----9-x8----16-x8----14-x8---12-x8--17-x8--16-x8--14-x8------------|
E-------------------------------------------------------------------------|

ok so on the intro the "x8" means play it 8 times and the other number are what fret xD

verse
E---------------------------------------------------------------------------|
A---------------------------------------------------------------------------|
D---------------------------------------------------------------------------|
G---------------------------------------------------------------------------|
B-12-12-12-12-17-17-17-17-16-16-16-16-16-16-16-16---------------------------|
E---------------------------------------------------------------------------|

E---------------------------------------------------------------------------|
A---------------------------------------------------------------------------|
D---------------------------------------------------------------------------|
G---------------------------------------------------------------------------|
B-12-12-12-12-17-17-17-17-16-16-16-16-16-16-16-16---------------------------|
E---------------------------------------------------------------------------|

E---------------------------------------------------------------------------|
A---------------------------------------------------------------------------|
D---------------------------------------------------------------------------|
G---------------------------------------------------------------------------|
B-17-17-16-16-14-14-14-14-14-14-14-14-14-14-14-14---------------------------|
E---------------------------------------------------------------------------|

E---------------------------------------------------------------------------|
A---------------------------------------------------------------------------|
D---------------------------------------------------------------------------|
G---------------------------------------------------------------------------|
B-17-17-16-16-14-14-14-14-14-14-14-14-14-14-14-14---------------------------|
E---------------------------------------------------------------------------|

chorus
E---------------------------------------------------------------------------|
A---------------------------------------------------------------------------|
D---------------------------------------------------------------------------|
G---------------------------------------------------------------------------|
B-12-x7---17-x7---16-x7---14-x7---------------------------------------------|
E---------------------------------------------------------------------------|

while doing the chorus you can play open G string everytime you hit a note, but i 
not to so i didnt put it in xD
Tap to rate this tab
 
# A B C D E F G H I J K L M N O P Q R S T U V W X Y Z