Song name
# A B C D E F G H I J K L M N O P Q R S T U V W X Y Z

Chris Tomlin - Jesus Messiah tab

Chris Tomlin
Jesus Messiah
From "Hello Love" and "Passion: Awakening"

The only reason I'm submitting a tab for a song that's already been done
six times (virtually the same way) is because I have the lead part and we
can have everything in one file. 

Hello Love - Capo 4, Passion - Capo 2
83 BPM

Intro: G/B  -  Am7  x4 


Verse 1
G                  Am7
He became sin, who knew no sin  
G/B                  C2     
That we might become His Righteousness 
G                     Am7
He humbled himself and carried the cross 


Pre-Chorus x2
D        C2
Love so amazing   


Chorus
G                           C
Jesus Messiah,  Name above all names  
        G               D
Blessed Redeemer,  Emmanuel
G
The rescue for sinners 
                 C2
The ransom from Heaven 
      G/B     D             G
Jesus Messiah,  Lord of all  


Verse 2
His body the bread, His blood the wine  
Broken and poured out all for love 
The whole earth trembled and the veil was torn 


Pre-Chorus x2
(Chorus) 


Bridge x2
Am7                G/B
All our hope is in You 
C2                  D
All our hope is in You 
Am7              G/B
All the glory to You, God 
C2                D
The light of the world 

(Repeat Chorus) 


Intro
e|---------------------------------------------------------------------|
B|----------12-11-12------------12-11-12-------------------------------|
G|------11-------------------11----------------------------------------|
D|---13-------------------14-------------------------------------------|
A|---------------------------------------------------------------------|
E|---------------------------------------------------------------------|


e|---------------------------------------------------------------------|
B|----------12-11-12------------11-------------------------------------|
G|------11-------------------11----------------------------------------|
D|---13-------------------11-------------------------------------------|
A|---------------------------------------------------------------------|
E|---------------------------------------------------------------------|


Verse (relative to capo)
e|--------------------------------------------------------------------------|
B|--------------------------------------------------------------------------|
G|--0-0-0-0-0-0-0-0-0-0-0-0-0-0-0-0-0-0-0-0-0-0-0-0--0--0--0--0--0--0--0--0-|
D|--5-5-5-5-5-5-5-5-7-7-7-7-7-7-7-7-9-9-9-9-9-9-9-9-10-10-10-10-10-10-10-10-|
A|--------------------------------------------------------------------------|
E|--------------------------------------------------------------------------|

e|--------------------------------------3-2-3--------------3----------------|
B|--------------------------------------------3---3------3---3--------------|
G|--0-0-0-0-0-0-0-0-0-0-0-0-0-0-0-0-------------0---------------------------|
D|--5-5-5-5-5-5-5-5-7-7-7-7-7-7-7-7--0--------------------------------------|
A|----------------------------------------------------3---------------------|
E|--------------------------------------------------------------------------|


Chorus
e|---------------------------------------------------------------------|
B|--17-16-16-14-16-16-14-16-16-14-16-14-19-19-19-19--------------------|
G|--0--0--0--0--0--0--0--0--0--0--0--0--0--0--0--0---------------------|
D|---------------------------------------------------------------------|
A|---------------------------------------------------------------------|
E|---------------------------------------------------------------------|

Repeat, and then this for "Emmanuel"
e|---------------------------------------------------------------------|
B|--14-14-14-14-14-14-14-14-12-12-12-12-12-12-12-12--------------------|
G|--0--0--0--0--0--0--0--0--0--0--0--0--0--0--0--0---------------------|
D|---------------------------------------------------------------------|
A|---------------------------------------------------------------------|
E|---------------------------------------------------------------------|



Chad Miller
http://www.freetoliveforyou.blogspot.com/
Tap to rate this tab
 
# A B C D E F G H I J K L M N O P Q R S T U V W X Y Z