Chris Tomlin - Everlasting God tab

Everlasting God ( Chris Tomlin ) TAB

(capo 6)

INTRO & VERSE
E   -------------------------------------------------------------------------|
B   -------------------------------------------------------------------------|
G   -------------------------------------------------------------------------|
D   -----0-0-0---------------------------------------------------------------|
A   -------------2-2-3-3-2-0---0-2-3-3-2-0----0-2-3-3-2-0--------------------|
E   ---3---------------------3--------------3-------------3------------------|

E   -------------------------------------------------------------------------|
B   -------------------------------------------------------------------------|
G   -------------------------------------------------------------------------|
D   -----0-0-0---------------------------------------------------------------|
A   -------------2-2-3-3-2-0---0-2-3-3-2-0----0-2-3-3-2-0--------------------|
E   ---3----------------------3--------------3------------3------------------|

PRE CHORUS                           (4-4)* is for the first time
E   -------------------------------------------------------------------------|
B   -------------------------------------------------------------------------|
G   -------------------------------------------------------------------------|
D   -----0-2-0-2-4-5-4---0-2-0-2-4-5-(4-4)->>>-7-7---------------------------|
A   -------------------------------------------------------------------------|
E   -------------------------------------------------------------------------|

CHORUS [ 1,2,3 ]
E   -------------------------------------------------------------------------|
B   -------------------------------------------------------------------------|
G   -----0-0-2-2-4-4-------2-2-4-4------2-2-4-4------------------------------|
D   ----------------0-2-0-2---------0-2-----------0-0-2-4-5-7-5-5------------|
A   -------------------------------------------------------------------------|
E   -------------------------------------------------------------------------|





                                            Arranged by Hey-Men

hermen_chong@hotmail.com
Tap to rate this tab
 
# A B C D E F G H I J K L M N O P Q R S T U V W X Y Z