Chris Tomlin - Our God Is Greater tab

SONG: Our God
ARTIST: Chris Tomlin
Tuning: Standard (eBGDAE)

Tabbed by:
Jeremy
~~~~~~~~~~~~~~~~~~~~~~~~~~~~~~~~~~~~~~~~~~~~~~~~~~~~~~~~~~~~~~~~~~~~~~~~~~~~~~
~Intro~
e|---------------------------------------------------------------------------|
B|-12-12-12-12-12-12-12-9--9--9--9--9--9--16-16-16-16-16-16-16-14-14-14-14---|
G|---------------------------------------------------------------------------|
D|---------------------------------------------------------------------------|
A|---------------------------------------------------------------------------|
E|---------------------------------------------------------------------------|

~~~~~~~~~~~~~~~~~~~~~~~~~~~~~~~~~~~~~~~~~~~~~~~~~~~~~~~~~~~~~~~~~~~~~~~~~~~~~~
~Verse 1~
e|---------------------------------------------------------------------------|
B|-16-16-16-16-17-17-17-17-16-16-16-16-16-16-16-16---------------------------|
G|---------------------------------------------------------------------------|
D|---------------------------------------------------------------------------|
A|---------------------------------------------------------------------------|
E|---------------------------------------------------------------------------|
  "Opened the eyes of the blind..."

e|-------------------------------14----14------------------------------------|
B|-14-(X16)-------------------12----12----12--11~~~--------------------------|
G|---------------------------------------------------------------------------|
D|---------------------------------------------------------------------------|
A|---------------------------------------------------------------------------|
E|---------------------------------------------------------------------------|
  "There's none like you..."

~~~~~~~~~~~~~~~~~~~~~~~~~~~~~~~~~~~~~~~~~~~~~~~~~~~~~~~~~~~~~~~~~~~~~~~~~~~~~~
~Verse 2~
e|---------------------------------------------------------------------------|
B|--16(X4)-17(X4)-16(X8)-----------------------------------------------------|
G|------------------------(X2)-----------------------------------------------|
D|---------------------------------------------------------------------------|
A|---------------------------------------------------------------------------|
E|---------------------------------------------------------------------------|
  "Into the darkness you shine..."

e|---------------------------------14----14----------------------------------|
B|-14-(X16)---------------------12----12----12--11~~~------------------------|
G|---------------------------------------------------------------------------|
D|---------------------------------------------------------------------------|
A|---------------------------------------------------------------------------|
E|---------------------------------------------------------------------------|
  "There's no one like you..."
~~~~~~~~~~~~~~~~~~~~~~~~~~~~~~~~~~~~~~~~~~~~~~~~~~~~~~~~~~~~~~~~~~~~~~~~~~~~~~
~Chorus~(X2)
e|---------------------------------------------------------------------------|
B|-12-12-12-12-12-12-12-17-17-17-17-17-16-16-16-16-16-16-16-14-14-14-14-14-14|
G|---------------------------------------------------------------------------|
D|---------------------------------------------------------------------------|
A|---------------------------------------------------------------------------|
E|---------------------------------------------------------------------------|
~~~~~~~~~~~~~~~~~~~~~~~~~~~~~~~~~~~~~~~~~~~~~~~~~~~~~~~~~~~~~~~~~~~~~~~~~~~~~~~
~Instrumental #1~
e|---------------------------------------------------------------------------|
B|-12-12-12-12-12-12-12-17-17-17-17-17-16-16-16-16-16-16-16-14-14-14-14-14-14|
G|---------------------------------------------------------------------------|
D|---------------------------------------------------------------------------|
A|---------------------------------------------------------------------------|
E|---------------------------------------------------------------------------|
~~~~~~~~~~~~~~~~~~~~~~~~~~~~~~~~~~~~~~~~~~~~~~~~~~~~~~~~~~~~~~~~~~~~~~~~~~~~~~~
*Build-Up & Bridge is instrumental #1*
Verse 2 (X1)
Chorus (X3)
Build-Up (X2)
Bridge (X2)

~Instrumental #2~
e|---------------------------------------------------------------------------|
B|---------------------------------------------------------------------------|
G|------9---4----------------------------------------------------------------|
D|--6---9---4---4------------------------------------------------------------|
A|--6---7---2---4------------------------------------------------------------|
E|--4-----------2------------------------------------------------------------|

*Play instrumental #2 through the rest of the song, then end on this chord:*

e|----------------------------|
B|----------------------------|
G|-9~~~-----------------------|
D|-9~~~-----------------------|
A|-7~~~-----------------------|
E|----------------------------|

...and let the violin finish it off! Hope you found this useful, God bless!:)
Tap to rate this tab
 
# A B C D E F G H I J K L M N O P Q R S T U V W X Y Z