Chris Tomlin - God Of This City tab

GOD OF THIS CITY  Chris Tomlin / Bluetree
-----------------------------------------------------------------
Tabbed by: Graham Choo
Email: da_tweens@yahoo.co.uk
Tuning: Standard (Capo 4th Fret)
Intro:
   Em Dsus C9  Em Dsus C9
e|-3---3---3---3---3---3-----------------------------------------|
B|-3---3---3---3---3---3-----------------------------------------|
G|-0---2---0---0---2---0-----------------------------------------|
D|-2---0---2---2---0---2-----------------------------------------|
A|-2-------3---2-------3-----------------------------------------|
E|-0-----------0-------------------------------------------------|

Verse:
   G  D/F# Em  C9  G  D/F# Em  C9
e|-3---3---3---3---3---3---3---3---------------------------------|
B|-3---3---3---3---3---3---3---3---------------------------------|
G|-0---2---0---0---0---2---0---0---------------------------------|
D|-0---0---2---2---0---0---2---2---------------------------------|
A|-2---0---2---3---2---0---2---3---------------------------------|
E|-3---2---0-------3---2---0-------------------------------------|

Pre-Chorus:
   G  D/F# C9  Em Dsus C9 Dsus
e|-3---3---3---3---3---3---3-------------------------------------|
B|-3---3---3---3---3---3---3-------------------------------------|
G|-0---2---0---0---2---0---2-------------------------------------|
D|-0---0---2---2---0---2---0-------------------------------------|
A|-2---0---3---2-------3-----------------------------------------|
E|-3---2-------0-------------------------------------------------|

Chorus 1:
   C9 Dsus G  D/F# C9  C9 Dsus G  D/F# C9
e|-3---3---3---3---3---3---3---3---3---3-------------------------|
B|-3---3---3---3---3---3---3---3---3---3-------------------------|
G|-0---2---0---2---0---0---2---0---2---0-------------------------|
D|-2---0---0---0---2---2---0---0---0---2-------------------------|
A|-3-------2---0---3---3-------2---0---3-------------------------|
E|---------3---2---------------3---2-----------------------------|

Verse

Pre-Chorus

Chorus 1

   C9 Dsus G   C9
e|-3---3---3---3-------------------------------------------------|
B|-3---3---3---3-------------------------------------------------|
G|-0---2---0---0-------------------------------------------------|
D|-2---0---0---2-------------------------------------------------|
A|-3-------2---3-------------------------------------------------|
E|---------3-----------------------------------------------------|

Interlude:
   G   C9  Em  C9  G   C9
e|-3---3---3---3---3---3-----------------------------------------|
B|-3---3---3---3---3---3-----------------------------------------|
G|-0---0---0---0---0---0-----------------------------------------|
D|-0---2---2---2---0---2-----------------------------------------|
A|-2---3---2---3---2---3-----------------------------------------|
E|-3-------0-------3---------------------------------------------|

Pre-Chorus

Chorus 1

Chorus 2:
   C9 Dsus G  D/F# C9  C9 Dsus G  D/F# Em  C9
e|-3---3---3---3---3---3---3---3---3---3---3---------------------|
B|-3---3---3---3---3---3---3---3---3---3---3---------------------|
G|-0---2---0---2---0---0---2---0---2---0---0---------------------|
D|-2---0---0---0---2---2---0---0---0---2---2---------------------|
A|-3-------2---0---3---3-------2---0---2---3---------------------|
E|---------3---2---------------3---2---0-------------------------|

Outro:
   G  D/F# Em  C9
e|-3---3---3---3-------------------------------------------------|
B|-3---3---3---3-------------------------------------------------|
G|-0---2---0---0-------------------------------------------------|
D|-0---0---2---2-------------------------------------------------|
A|-2---0---2---3-------------------------------------------------|
E|-3---2---0-----------------------------------------------------|
Tap to rate this tab
 
# A B C D E F G H I J K L M N O P Q R S T U V W X Y Z