Song name
# A B C D E F G H I J K L M N O P Q R S T U V W X Y Z

Chris Tomlin - Your Grace Is Enough tab

Chris Tomlin
Your Grace Is Enough 
Standard tuning

E[5-5-5-7-7-4-4-5-5-7-5-4-4-5-5-5-4-4-2-2-0-0-5-5-4-4--9-9]
B[5-5-5-5-5-5-5-5-5-5-5-5-5-5-5-5-5-5-0-0-0-0-5-5-5-5--9-9]
G[--------------------------------------------------------]
D[--------------------------------------------------------]
A[--------------------------------------------------------]
E[--------------------------------------------------------]

E[5-5-5-7-7-4-4-5-5-7-5-4-4-5-5-5-9-9-9-9-7---9-9-9-9-7-5-]
B[5-5-5-5-5-5-5-5-5-5-5-5-5-5-5-5-9-9-9-9-7---9-9-9-9-7-5-]
G[--------------------------------------------------------]
D[--------------------------------------------------------]
A[--------------------------------------------------------]
E[--------------------------------------------------------]

all eighth notes

this is the first tab i have done so i appreciate any feedback.
Tap to rate this tab
# A B C D E F G H I J K L M N O P Q R S T U V W X Y Z