Song name
# A B C D E F G H I J K L M N O P Q R S T U V W X Y Z

Chris Tomlin - My Deliverer tab

Chris Tomlin
My Deliverer
From "Hello Love"
Tabbed by thechadmiller (Twitter)

I know there are already multiple submissions of this song, but none of them
are complete with the correct chords as well as all the main tabs, so I 
wanted to share what I had.


Capo 1
92 BPM
Intro
C - G - Am - F

Verse 1
        F               G             F      C       G
I will wait for You to move, For Your mighty hand to save
          F               G
When the troubled waters rise,
    F       C      G
You are my hiding place (x2)


Pre Chorus
Dm7             C         Am7             G
Your walls are salvation, Your gates are praise!
Dm7            C/E        F               G
Your walls are salvation, Your gates are praise!


Chorus
      F C G        F C G
My Deliverer, My Deliverer,
      F C G          F  G
My Deliverer, Is the Lord.


Verse 2
        F               G            F      C       G
Who is like You mighty God? Who can take me from Your hand?
          F               G
As I walk with You in freedom,
           F       C      G
You’re the rock on which I stand (x2)

Pre-Chorus
Chorus x2

BRIDGE
C            F2            C/E    G     C
Oooooh Oooooooooh Oooh. Ooooooh. Oooooh Oh
C            Am   F        C/E    G     C
Oooooh Oooooooooh Oooh. Ooooooh. Oooooh Oh

Chorus
Intro

All these tabs are relative to the capo. He plays this in C with no capo
in concert (and its much easier on your pipes to do the same), so just
play it like this and you'll be fine.
Intro
Gtr 1
e|--8---8---10---8---8---8---10---12-----------------------------------|
b|----8---8----8---8---8---8----8----8---------------------------------|
G|---------------------------------------------------------------------|
D|---------------------------------------------------------------------|
A|---------------------------------------------------------------------|
E|---------------------------------------------------------------------|

or 
e|---------------------------------------------12----------------------|
B|--13----13----15----13----13----13----15-----------------------------|
G|-----12----12----12----12----12----12----12--------------------------|
D|---------------------------------------------------------------------|
A|---------------------------------------------------------------------|
E|---------------------------------------------------------------------|

Gtr 2 intro (on the second time through)
e|---------------------------------------------------------------------|
B|---------------------------------------------------------------------|
G|--9~~~~~12~~~7~~~~~9~~~5~~~~4~~~5~~2~~~~~----------------------------|
D|---------------------------------------------------------------------|
A|---------------------------------------------------------------------|
E|--8-----12---7-----8---5----3---3--1---------------------------------|


Pre-chorus
e|---------------------------------------------------------------------|
B|---------------------------------------------------------------------|
G|--5-5-5-5-5-7-9---5-5-5-5-5-7-9---5-5-5-5-5-7-9--7-7-7-7-7-7-7-7-----|
D|---------------------------------------------------------------------|
A|--3-3-3-3-3-5-7---3-3-3-3-3-5-7---3-3-3-3-3-5-7--5-5-5-5-5-5-5-5-----|
E|---------------------------------------------------------------------|

e|---------------------------------------------------------------------|
B|---------------------------------------------------------------------|
G|--7-7-7-7-7-9-10--9-9-9-9-9-10-12---10-10-10-10-10-12-14-12----------|
D|---------------------------------------------------------------------|
A|--5-5-5-5-5-7-8---7-7-7-7-7-8--10---8--8--8--8--8--10-12-10----------|
E|---------------------------------------------------------------------|


If you have any input or corrections, hit me up on twitter and also let me 
know if you have any other songs you need help with. God bless!
Tap to rate this tab
# A B C D E F G H I J K L M N O P Q R S T U V W X Y Z