Song name
# A B C D E F G H I J K L M N O P Q R S T U V W X Y Z

Chris Tomlin - No Chains On Me tab

------------------------------------------------------------------------------
NO CHAINS ON ME - Chis Tomlin
------------------------------------------------------------------------------
Tabbed by: HarmonicDrone
Email: tabs@amplifydesign.com.au

Tuning: Standard

Intro/Instrumental:
e|---------------------------------------------------------------------------|
B|--5-7--5-9--5-7--5h7p5-10-9------------------------------------------------|
G|---------------------------------------------------------------------------|
D|---------------------------------------------------------------------------|
A|---------------------------------------------------------------------------|
E|---------------------------------------------------------------------------|

Verse:
E5 Asus2 C#5 Asus2

Guitar  1: (palm-mute strummed with minor blues distortion)
e|---------------------------------------------------------------------------|
B|---------------------------------------------------------------------------|
G|---------------------------------------------------------------------------|
D|--9---2---6---7-6----------------------------------------------------------|
A|--7---0---4---7-7----------------------------------------------------------|
E|--------------5-5----------------------------------------------------------|

Guitar 2: (overdrive with dotted eighth delay)
Come in 2nd half of the verse
e|--12-12-12----------12-12-12-14-14-14-16-16-16-16--------------------------|
B|-----------12-12-12--------------------------------------------------------|
G|---------------------------------------------------------------------------|
D|---------------------------------------------------------------------------|
A|---------------------------------------------------------------------------|
E|---------------------------------------------------------------------------|

Chorus:
E5 Asus2 E5 Asus2

Bridge:
E5 E/Eb Asus2 F#m


************************************

| /   slide up
| \   slide down
| h   hammer-on
| p   pull-off
| ~   vibrato
| +   harmonic
| x   Mute note
| b   Bend
| pb  Pre-bend
| br  Bend release
| pbr Pre-bend release
| brb Bend release bend

************************************
Tap to rate this tab
 
# A B C D E F G H I J K L M N O P Q R S T U V W X Y Z