Song name
# A B C D E F G H I J K L M N O P Q R S T U V W X Y Z

Chris Tomlin - Everlasting God chords

Highlighted       Show chord diagrams
----------------------------------------------------------------------------
                             Everlasting God - Chris Tomlin
----------------------------------------------------------------------------
Tabbed by:rick
E-mail:
capo 3


Verse
E                       e2/d#      A               E
Strength will rise as    we        wait upon the Lord

   e2/d#      A              E
We will       wait upon the Lord

   e2/d#      A              E
we will       wait upon the Lord


Pre:
e2/d#     A     e2/d#    A        B      C#M        B
Our      God    You      reign    for  - ev----     er

e2/d#    A      e2/d#    A        B      C#M        B
Our      hope   Our      strong   de  -  liv-       -rer



Chorus
E                          A
You are the everlasting God

                 C#M
the everlasting God

                     A     B          A     F#m
You do not faint You won't grow       weary

      E                           A
and you're the defender of the week

                       C#M
you comfort those in need

                  A     B    A     F#m
you lift us up on wings like eagles.

verse
pre
chorus

    E             e2/d#      A       B      C#M       F#m

e|-------------------0--------0-------0-------0--------0-------------------|
B|-------------------0--------0-------0-------0--------0-------------------|
G|---1---------------4--------2-------4-------6--------2-------------------|
D|-----2-------------4--------2-------4-------6--------2-------------------|
A|-----2-------------x--------0-------2-------5--------0-------------------|
E|-------------------4--------x-------x-------x--------2-------------------|

x-not played
0-open
Tap to rate this tab
# A B C D E F G H I J K L M N O P Q R S T U V W X Y Z