Song name
# A B C D E F G H I J K L M N O P Q R S T U V W X Y Z

Chris Tomlin - All My Fountains tab

So guitar II is more tabs than chords
so here it is exactly how its played.
Everything is relative to capo.

Standard tuning
Capo on 2nd fret except high e string.
During the Interlude
p - Pull Off
H - Hammer On
^ - is up strum
Blank - is down strum

Intro

    Em                C
e|------------------------------------|
B|--0------0----------1-------1-------|
G|----0------0----------0-------0-----|
D|------2------2----------2-------2---|
A|------------------------------------|
E|--0------0----------0-------0-------|

    G
e|--3-------3---------|
B|----3-------3-------|
G|------0-------0-----|
D|--------------------|
A|--------------------|
E|--3-------3---------|    that order x3


Interlude
There should be no capo holding the high e string down
The pull offs are fast so you barely notice them.

e|--0-0-4p0-4p0-0-0-2-2-0-0-0-0-0-5p0-5p0-0-0-4-4-0-2-0-0-0---|
B|--5-5-5---5---5-5-5-5-5-5-5-5-5-5---5---5-5-5-5-5-5-5-5-5---|
G|------------------------------------------------------------|
D|------------------------------------------------------------|
A|------------------------------------------------------------|
E|------------------------------------------------------------|
      ^           ^   ^   ^ ^   ^           ^   ^   ^   ^
Tap to rate this tab
# A B C D E F G H I J K L M N O P Q R S T U V W X Y Z