Song name
# A B C D E F G H I J K L M N O P Q R S T U V W X Y Z

Chris Tomlin - Jesus Messiah G tab

*Quarter note Delay*

Intro: 
e---------------------------------------------------|----------------------------|
B-----8-7-8------------8-7-8-------------8-7-8------|-----8-7-8-----------7-8-10-|
G---7-------7---7----7-------7----7----7-------7--7-|---7-------7---7---7--------| 
D-9-----------9---10-----------10----9----------9---|-7-----------7---7----------| 
A-----(x2)--------------(x2)--------------(x2)------|----------------------------|
E---------------------------------------------------|----------------------------|

Verse 1:
G
He became sin 
Am7
Who knew no sin 
G/B                  C2     
That we might become His Righteousness 
G                     Am7
He humbled himself and carried the cross 
G/B       C2
Love so amazing 
  D       C2
Love so amazing 

Verses: (play the B string notes during Verse 2) 
e-------------------------------------------------------------------------------------|
B---------------7~--------------------------8-----8~-----------------------8~---10~---|
G-00000000---0--0--0--0--0--0--0--0---0--0--0--0--0--0--0--0---0--0--0--0--0--0--0--0-| 
D-77777777-/-7--7--7--7--7--7--7--7-/-9--9--9--9--9--9--9--9-/10-10-10-10-10-10-10-10-| 
A-------------------------------------------------------------------------------------|
E-------------------------------------------------------------------------------------|

e--------------------------------------|
B--------------------------------------|
G-00000000---0--0--0--0--0--0--0--0-0~-| 
D-55555555-/-7--7--7--7--7--7--7--7-0~-| 
A--------------------------------------|
E--------------------------------------|

e-3-2-3-------3---|---3-2-3-------3---|-3333-33-|
B------3--3--3-3~-|--3-----3--3--3-3~-|-3333-33-|
G--------0--------|----------0--------|-0000-00-| 
D-----------------|-0-----------------|-2222-22-| 
A-----------3-----|-------------3-----|-3333-33-|
E-----------------|-------------------|---------|
                           C2
Chorus: (play basic chords)
G
Jesus Messiah 
           C2
Name above all names 
        G
Tap to rate this tab
# A B C D E F G H I J K L M N O P Q R S T U V W X Y Z