Song name
# A B C D E F G H I J K L M N O P Q R S T U V W X Y Z

Chris Tomlin - All My Fountains tab

Intro:
  C#m
e ----------4------------------------------|
B ---5--------5----------------------------|
G -------6------6--------------------------|
D -----------------------------------------|      x8
A ---4-------------------------------------|
E -----------------------------------------|

  C#m
e -----------4-----------------4-------------|
B ---5---------5--------5--------5-----------|
G -------6-------6----------6------6---------|
D -------------------------------------------|
A ---4------------------4--------------------|
E -------------------------------------------|
        This dry and desert land

   A
e ----------0-----------------0---------------|
B ---2--------2--------2--------2-------------|
G -------2------2----------2------2-----------|
D --------------------------------------------|
A ---0-----------------0----------------------|
E --------------------------------------------|
      I tell myself keep walking

   E
e ----------0---------------0------------0-------------0----|
B ---0--------0------0--------0-----0------0-----0-------0--|
G -------1------1--------1------1------1-----1-------1----1-|
D ----------------------------------------------------------|
A ---2---------------2--------------2------------2----------|
E ----------------------------------------------------------|
   on.

Repeat above for:

C#m
Hear something up ahead
A                    E
Water falling like a song
C#m
An ever lasting stream
A                   **E
Your river carries me home
Let it flow
Let it flow

(** Go through this E twice and then strum it once.)

Instrumental: E-A-E-E  E-A-E-E

C#m
A flood for my soul
A                          E
A well that never will run dry
C#m
I've rambled on my own
A                       E
Never believing I would find
C#m
An everlasting stream
A                     E
Your river carries me home
E
Let it flow
E
Let it flow

E
Open the heavens
E
Come living water
        A
All my fountains
       E
Are in You
E
Strong like a river
E
Your love is running through
        A
All my fountains
       E
Are in You

C#m
Rain down on us
A               E
Rain down on us Lord
Tap to rate this tab
# A B C D E F G H I J K L M N O P Q R S T U V W X Y Z